  0
SECTION
  2
HEADER
  9
$ACADVER
  1
AC1018
  9
$ACADMAINTVER
 70
     2
  9
$DWGCODEPAGE
  3
ANSI_932
  9
$INSBASE
 10
0.0
 20
0.0
 30
0.0
  9
$EXTMIN
 10
89.99725450062806
 20
217.5655527025991
 30
-0.0000000000000058
  9
$EXTMAX
 10
342.0190438558571
 20
262.4309698895446
 30
0.0000000000000104
  9
$LIMMIN
 10
0.0
 20
0.0
  9
$LIMMAX
 10
420.0
 20
297.0
  9
$ORTHOMODE
 70
     1
  9
$REGENMODE
 70
     1
  9
$FILLMODE
 70
     1
  9
$QTEXTMODE
 70
     0
  9
$MIRRTEXT
 70
     1
  9
$LTSCALE
 40
0.5
  9
$ATTMODE
 70
     1
  9
$TEXTSIZE
 40
3.0
  9
$TRACEWID
 40
1.0
  9
$TEXTSTYLE
  7
Standard
  9
$CLAYER
  8
1-線
  9
$CELTYPE
  6
ByLayer
  9
$CECOLOR
 62
   256
  9
$CELTSCALE
 40
1.0
  9
$DISPSILH
 70
     0
  9
$DIMSCALE
 40
1.0
  9
$DIMASZ
 40
2.5
  9
$DIMEXO
 40
0.0
  9
$DIMDLI
 40
3.75
  9
$DIMRND
 40
0.0
  9
$DIMDLE
 40
0.0
  9
$DIMEXE
 40
1.0
  9
$DIMTP
 40
0.0
  9
$DIMTM
 40
0.0
  9
$DIMTXT
 40
3.0
  9
$DIMCEN
 40
0.0
  9
$DIMTSZ
 40
0.0
  9
$DIMTOL
 70
     0
  9
$DIMLIM
 70
     0
  9
$DIMTIH
 70
     0
  9
$DIMTOH
 70
     0
  9
$DIMSE1
 70
     0
  9
$DIMSE2
 70
     0
  9
$DIMTAD
 70
     1
  9
$DIMZIN
 70
     8
  9
$DIMBLK
  1
Open30
  9
$DIMASO
 70
     1
  9
$DIMSHO
 70
     1
  9
$DIMPOST
  1

  9
$DIMAPOST
  1

  9
$DIMALT
 70
     0
  9
$DIMALTD
 70
     3
  9
$DIMALTF
 40
0.1
  9
$DIMLFAC
 40
1.0
  9
$DIMTOFL
 70
     1
  9
$DIMTVP
 40
0.0
  9
$DIMTIX
 70
     0
  9
$DIMSOXD
 70
     0
  9
$DIMSAH
 70
     0
  9
$DIMBLK1
  1

  9
$DIMBLK2
  1

  9
$DIMSTYLE
  2
Kyouwa
  9
$DIMCLRD
 70
     0
  9
$DIMCLRE
 70
     0
  9
$DIMCLRT
 70
     0
  9
$DIMTFAC
 40
0.7
  9
$DIMGAP
 40
1.0
  9
$DIMJUST
 70
     0
  9
$DIMSD1
 70
     0
  9
$DIMSD2
 70
     0
  9
$DIMTOLJ
 70
     0
  9
$DIMTZIN
 70
     8
  9
$DIMALTZ
 70
     0
  9
$DIMALTTZ
 70
     0
  9
$DIMUPT
 70
     0
  9
$DIMDEC
 70
     2
  9
$DIMTDEC
 70
     2
  9
$DIMALTU
 70
     2
  9
$DIMALTTD
 70
     3
  9
$DIMTXSTY
  7
Standard
  9
$DIMAUNIT
 70
     0
  9
$DIMADEC
 70
     0
  9
$DIMALTRND
 40
0.0
  9
$DIMAZIN
 70
     0
  9
$DIMDSEP
 70
    46
  9
$DIMATFIT
 70
     3
  9
$DIMFRAC
 70
     0
  9
$DIMLDRBLK
  1
Open30
  9
$DIMLUNIT
 70
     2
  9
$DIMLWD
 70
    -2
  9
$DIMLWE
 70
    -2
  9
$DIMTMOVE
 70
     0
  9
$LUNITS
 70
     2
  9
$LUPREC
 70
     4
  9
$SKETCHINC
 40
1.0
  9
$FILLETRAD
 40
1.0
  9
$AUNITS
 70
     0
  9
$AUPREC
 70
     0
  9
$MENU
  1
.
  9
$ELEVATION
 40
0.0
  9
$PELEVATION
 40
0.0
  9
$THICKNESS
 40
0.0
  9
$LIMCHECK
 70
     0
  9
$CHAMFERA
 40
0.0
  9
$CHAMFERB
 40
0.0
  9
$CHAMFERC
 40
20.0
  9
$CHAMFERD
 40
0.0
  9
$SKPOLY
 70
     0
  9
$TDCREATE
 40
2452108.402762732
  9
$TDUCREATE
 40
2452108.027762732
  9
$TDUPDATE
 40
2454348.738686157
  9
$TDUUPDATE
 40
2454348.363686158
  9
$TDINDWG
 40
1.4331335301
  9
$TDUSRTIMER
 40
1.4331333449
  9
$USRTIMER
 70
     1
  9
$ANGBASE
 50
0.0
  9
$ANGDIR
 70
     0
  9
$PDMODE
 70
     0
  9
$PDSIZE
 40
0.0
  9
$PLINEWID
 40
0.0
  9
$SPLFRAME
 70
     0
  9
$SPLINETYPE
 70
     6
  9
$SPLINESEGS
 70
     8
  9
$HANDSEED
  5
5084
  9
$SURFTAB1
 70
     6
  9
$SURFTAB2
 70
     6
  9
$SURFTYPE
 70
     6
  9
$SURFU
 70
     6
  9
$SURFV
 70
     6
  9
$UCSBASE
  2

  9
$UCSNAME
  2

  9
$UCSORG
 10
0.0
 20
0.0
 30
0.0
  9
$UCSXDIR
 10
1.0
 20
0.0
 30
0.0
  9
$UCSYDIR
 10
0.0
 20
1.0
 30
0.0
  9
$UCSORTHOREF
  2

  9
$UCSORTHOVIEW
 70
     0
  9
$UCSORGTOP
 10
0.0
 20
0.0
 30
0.0
  9
$UCSORGBOTTOM
 10
0.0
 20
0.0
 30
0.0
  9
$UCSORGLEFT
 10
0.0
 20
0.0
 30
0.0
  9
$UCSORGRIGHT
 10
0.0
 20
0.0
 30
0.0
  9
$UCSORGFRONT
 10
0.0
 20
0.0
 30
0.0
  9
$UCSORGBACK
 10
0.0
 20
0.0
 30
0.0
  9
$PUCSBASE
  2

  9
$PUCSNAME
  2

  9
$PUCSORG
 10
0.0
 20
0.0
 30
0.0
  9
$PUCSXDIR
 10
1.0
 20
0.0
 30
0.0
  9
$PUCSYDIR
 10
0.0
 20
1.0
 30
0.0
  9
$PUCSORTHOREF
  2

  9
$PUCSORTHOVIEW
 70
     0
  9
$PUCSORGTOP
 10
0.0
 20
0.0
 30
0.0
  9
$PUCSORGBOTTOM
 10
0.0
 20
0.0
 30
0.0
  9
$PUCSORGLEFT
 10
0.0
 20
0.0
 30
0.0
  9
$PUCSORGRIGHT
 10
0.0
 20
0.0
 30
0.0
  9
$PUCSORGFRONT
 10
0.0
 20
0.0
 30
0.0
  9
$PUCSORGBACK
 10
0.0
 20
0.0
 30
0.0
  9
$USERI1
 70
     0
  9
$USERI2
 70
     0
  9
$USERI3
 70
     0
  9
$USERI4
 70
     0
  9
$USERI5
 70
     0
  9
$USERR1
 40
0.0
  9
$USERR2
 40
0.0
  9
$USERR3
 40
0.0
  9
$USERR4
 40
0.0
  9
$USERR5
 40
0.0
  9
$WORLDVIEW
 70
     1
  9
$SHADEDGE
 70
     3
  9
$SHADEDIF
 70
    70
  9
$TILEMODE
 70
     1
  9
$MAXACTVP
 70
    48
  9
$PINSBASE
 10
0.0
 20
0.0
 30
0.0
  9
$PLIMCHECK
 70
     0
  9
$PEXTMIN
 10
1.000000000000000E+20
 20
1.000000000000000E+20
 30
1.000000000000000E+20
  9
$PEXTMAX
 10
-1.000000000000000E+20
 20
-1.000000000000000E+20
 30
-1.000000000000000E+20
  9
$PLIMMIN
 10
0.0
 20
0.0
  9
$PLIMMAX
 10
420.0
 20
297.0
  9
$UNITMODE
 70
     0
  9
$VISRETAIN
 70
     1
  9
$PLINEGEN
 70
     0
  9
$PSLTSCALE
 70
     1
  9
$TREEDEPTH
 70
  3020
  9
$CMLSTYLE
  2
Standard
  9
$CMLJUST
 70
     0
  9
$CMLSCALE
 40
20.0
  9
$PROXYGRAPHICS
 70
     1
  9
$MEASUREMENT
 70
     0
  9
$CELWEIGHT
370
    -1
  9
$ENDCAPS
280
     0
  9
$JOINSTYLE
280
     0
  9
$LWDISPLAY
290
     0
  9
$INSUNITS
 70
     4
  9
$HYPERLINKBASE
  1

  9
$STYLESHEET
  1
MONOCHROME.CTB
  9
$XEDIT
290
     1
  9
$CEPSNTYPE
380
     0
  9
$PSTYLEMODE
290
     1
  9
$FINGERPRINTGUID
  2
{D5BDD00D-7A95-11D5-B0EC-00E0181A799A}
  9
$VERSIONGUID
  2
{B454A705-0A82-469F-B261-994EA67A81FF}
  9
$EXTNAMES
290
     1
  9
$PSVPSCALE
 40
0.0
  9
$OLESTARTUP
290
     0
  9
$SORTENTS
280
    96
  9
$INDEXCTL
280
     0
  9
$HIDETEXT
280
     0
  9
$XCLIPFRAME
290
     0
  9
$HALOGAP
280
     0
  9
$OBSCOLOR
 70
   257
  9
$OBSLTYPE
280
     0
  9
$INTERSECTIONDISPLAY
280
     0
  9
$INTERSECTIONCOLOR
 70
   257
  9
$DIMASSOC
280
     1
  9
$PROJECTNAME
  1

  0
ENDSEC
  0
SECTION
  2
CLASSES
  0
CLASS
  1
ACDBDICTIONARYWDFLT
  2
AcDbDictionaryWithDefault
  3
ObjectDBX Classes
 90
        0
 91
        1
280
     0
281
     0
  0
CLASS
  1
PLOTSETTINGS
  2
AcDbPlotSettings
  3
ObjectDBX Classes
 90
        0
 91
        1
280
     0
281
     0
  0
CLASS
  1
DICTIONARYVAR
  2
AcDbDictionaryVar
  3
ObjectDBX Classes
 90
        0
 91
        1
280
     0
281
     0
  0
ENDSEC
  0
SECTION
  2
TABLES
  0
TABLE
  2
VPORT
  5
8
330
0
100
AcDbSymbolTable
 70
     4
  0
VPORT
  5
5083
330
8
100
AcDbSymbolTableRecord
100
AcDbViewportTableRecord
  2
*Active
 70
     0
 10
0.0
 20
0.0
 11
1.0
 21
1.0
 12
216.0081491782425
 22
239.9982612960719
 13
0.0
 23
0.0
 14
4.0
 24
4.0
 15
8.0
 25
8.0
 16
0.0
 26
0.0
 36
1.0
 17
0.0
 27
0.0
 37
0.0
 40
117.5212860485986
 41
2.155234657039711
 42
50.0
 43
0.0
 44
0.0
 50
0.0
 51
0.0
 71
     0
 72
   100
 73
     1
 74
     3
 75
     0
 76
     1
 77
     0
 78
     0
281
     0
 65
     1
110
0.0
120
0.0
130
0.0
111
1.0
121
0.0
131
0.0
112
0.0
122
1.0
132
0.0
 79
     0
146
0.0
  0
ENDTAB
  0
TABLE
  2
LTYPE
  5
5
330
0
100
AcDbSymbolTable
 70
     5
  0
LTYPE
  5
14
330
5
100
AcDbSymbolTableRecord
100
AcDbLinetypeTableRecord
  2
ByBlock
 70
     0
  3

 72
    65
 73
     0
 40
0.0
  0
LTYPE
  5
15
330
5
100
AcDbSymbolTableRecord
100
AcDbLinetypeTableRecord
  2
ByLayer
 70
     0
  3

 72
    65
 73
     0
 40
0.0
  0
LTYPE
  5
16
330
5
100
AcDbSymbolTableRecord
100
AcDbLinetypeTableRecord
  2
Continuous
 70
     0
  3
Solid line
 72
    65
 73
     0
 40
0.0
  0
LTYPE
  5
2D
330
5
100
AcDbSymbolTableRecord
100
AcDbLinetypeTableRecord
  2
HIDDEN2
 70
     0
  3
Hidden (.5x) _ _ _ _ _ _ _ _ _ _ _ _ _ _ _ _ _
 72
    65
 73
     2
 40
4.762499999999998
 49
3.174999999999998
 74
     0
 49
-1.587499999999999
 74
     0
  0
LTYPE
  5
2E
330
5
100
AcDbSymbolTableRecord
100
AcDbLinetypeTableRecord
  2
CENTER2
 70
     0
  3
Center (.5x) ___ _ ___ _ ___ _ ___ _ ___ _ ___
 72
    65
 73
     4
 40
28.575
 49
19.05
 74
     0
 49
-3.174999999999998
 74
     0
 49
3.174999999999998
 74
     0
 49
-3.174999999999998
 74
     0
  0
LTYPE
  5
2F
330
5
100
AcDbSymbolTableRecord
100
AcDbLinetypeTableRecord
  2
PHANTOM2
 70
     0
  3
Phantom (.5x) ___ _ _ ___ _ _ ___ _ _ ___ _ _
 72
    65
 73
     6
 40
31.75
 49
15.875
 74
     0
 49
-3.174999999999998
 74
     0
 49
3.174999999999998
 74
     0
 49
-3.174999999999998
 74
     0
 49
3.174999999999998
 74
     0
 49
-3.174999999999998
 74
     0
  0
LTYPE
  5
FD
330
5
100
AcDbSymbolTableRecord
100
AcDbLinetypeTableRecord
  2
CENTER
 70
     0
  3
Center ____ _ ____ _ ____ _ ____ _ ____ _ ____
 72
    65
 73
     4
 40
50.8
 49
31.75
 74
     0
 49
-6.349999999999998
 74
     0
 49
6.349999999999998
 74
     0
 49
-6.349999999999998
 74
     0
  0
ENDTAB
  0
TABLE
  2
LAYER
  5
2
330
0
100
AcDbSymbolTable
 70
    17
  0
LAYER
  5
10
330
2
100
AcDbSymbolTableRecord
100
AcDbLayerTableRecord
  2
0
 70
     0
 62
     7
  6
Continuous
370
   100
390
F
  0
LAYER
  5
30
330
2
100
AcDbSymbolTableRecord
100
AcDbLayerTableRecord
  2
1-線
 70
     0
 62
     3
  6
Continuous
370
    18
390
F
  0
LAYER
  5
31
330
2
100
AcDbSymbolTableRecord
100
AcDbLayerTableRecord
  2
1-破線
 70
     0
 62
     3
  6
HIDDEN2
370
    18
390
F
  0
LAYER
  5
32
330
2
100
AcDbSymbolTableRecord
100
AcDbLayerTableRecord
  2
1-1点
 70
     0
 62
     3
  6
CENTER2
370
    18
390
F
  0
LAYER
  5
33
330
2
100
AcDbSymbolTableRecord
100
AcDbLayerTableRecord
  2
1-2点
 70
     0
 62
     3
  6
PHANTOM2
370
    18
390
F
  0
LAYER
  5
3A
330
2
100
AcDbSymbolTableRecord
100
AcDbLayerTableRecord
  2
2-1点
 70
     0
 62
     6
  6
CENTER2
370
    18
390
F
  0
LAYER
  5
3B
330
2
100
AcDbSymbolTableRecord
100
AcDbLayerTableRecord
  2
2-2点
 70
     0
 62
     6
  6
PHANTOM2
370
    18
390
F
  0
LAYER
  5
3C
330
2
100
AcDbSymbolTableRecord
100
AcDbLayerTableRecord
  2
2-線
 70
     0
 62
     6
  6
Continuous
370
    18
390
F
  0
LAYER
  5
3D
330
2
100
AcDbSymbolTableRecord
100
AcDbLayerTableRecord
  2
2-破線
 70
     0
 62
     6
  6
HIDDEN2
370
    18
390
F
  0
LAYER
  5
3E
330
2
100
AcDbSymbolTableRecord
100
AcDbLayerTableRecord
  2
3-線
 70
     0
 62
     4
  6
Continuous
370
    35
390
F
  0
LAYER
  5
40
330
2
100
AcDbSymbolTableRecord
100
AcDbLayerTableRecord
  2
4-線
 70
     0
 62
     2
  6
Continuous
370
    35
390
F
  0
LAYER
  5
41
330
2
100
AcDbSymbolTableRecord
100
AcDbLayerTableRecord
  2
5-線
 70
     0
 62
     5
  6
Continuous
370
    35
390
F
  0
LAYER
  5
42
330
2
100
AcDbSymbolTableRecord
100
AcDbLayerTableRecord
  2
5-破線
 70
     0
 62
     5
  6
HIDDEN2
370
    18
390
F
  0
LAYER
  5
43
330
2
100
AcDbSymbolTableRecord
100
AcDbLayerTableRecord
  2
6-線
 70
     0
 62
     1
  6
Continuous
370
    35
390
F
  0
LAYER
  5
44
330
2
100
AcDbSymbolTableRecord
100
AcDbLayerTableRecord
  2
6-破線
 70
     0
 62
     1
  6
HIDDEN2
370
    18
390
F
  0
LAYER
  5
FF
330
2
100
AcDbSymbolTableRecord
100
AcDbLayerTableRecord
  2
4
 70
     0
 62
     6
  6
Continuous
370
    18
390
F
  0
LAYER
  5
1DD
330
2
100
AcDbSymbolTableRecord
100
AcDbLayerTableRecord
  2
Defpoints
 70
     4
 62
     7
  6
Continuous
290
     0
370
    -3
390
F
  0
ENDTAB
  0
TABLE
  2
STYLE
  5
3
330
0
100
AcDbSymbolTable
 70
     3
  0
STYLE
  5
11
330
3
100
AcDbSymbolTableRecord
100
AcDbTextStyleTableRecord
  2
Standard
 70
     0
 40
0.0
 41
1.0
 50
0.0
 71
     0
 42
3.0
  3
txt.shx
  4
bigfont.shx
  0
STYLE
  5
2C
330
3
100
AcDbSymbolTableRecord
100
AcDbTextStyleTableRecord
  2

 70
     1
 40
0.0
 41
1.0
 50
0.0
 71
     0
 42
2.5
  3
ltypeshp.shx
  4

  0
STYLE
  5
9C
330
3
100
AcDbSymbolTableRecord
100
AcDbTextStyleTableRecord
  2
縦
 70
     4
 40
0.0
 41
1.0
 50
0.0
 71
     0
 42
2.799999999999998
  3
txt.shx
  4
bigfont.shx
  0
ENDTAB
  0
TABLE
  2
VIEW
  5
6
330
0
100
AcDbSymbolTable
 70
     1
  0
VIEW
  5
502
330
6
100
AcDbSymbolTableRecord
100
AcDbViewTableRecord
  2
OLE1
 70
     0
 40
233.3949522673788
 10
309.4656970073121
 20
48.01785105749138
 41
232.3911030103148
 11
0.0
 21
0.0
 31
1.0
 12
0.0
 22
0.0
 32
0.0
 42
50.0
 43
0.0
 44
0.0
 50
0.0
 71
     0
281
     0
 72
     0
  0
ENDTAB
  0
TABLE
  2
UCS
  5
7
330
0
100
AcDbSymbolTable
 70
     0
  0
ENDTAB
  0
TABLE
  2
APPID
  5
9
330
0
100
AcDbSymbolTable
 70
     1
  0
APPID
  5
12
330
9
100
AcDbSymbolTableRecord
100
AcDbRegAppTableRecord
  2
ACAD
 70
     0
  0
ENDTAB
  0
TABLE
  2
DIMSTYLE
  5
A
330
0
100
AcDbSymbolTable
 70
     3
100
AcDbDimStyleTable
 71
     1
340
1C8
  0
DIMSTYLE
105
27
330
A
100
AcDbSymbolTableRecord
100
AcDbDimStyleTableRecord
  2
ISO-25
 70
     0
 41
2.5
 42
0.625
 43
3.75
 44
1.25
 73
     0
 74
     0
 77
     1
 78
     8
140
2.5
141
2.5
143
0.03937007874016
147
0.625
171
     3
172
     1
271
     2
272
     2
274
     3
283
     0
284
     8
340
11
  0
DIMSTYLE
105
100
330
A
100
AcDbSymbolTableRecord
100
AcDbDimStyleTableRecord
  2
JIS
 70
     0
 41
2.5
 42
1.0
 43
7.0
 44
1.0
 73
     0
 74
     0
 77
     1
 78
     8
140
2.5
141
0.0
143
0.0394
147
0.0
172
     1
174
     1
175
     1
340
11
  0
DIMSTYLE
105
1C8
330
A
100
AcDbSymbolTableRecord
100
AcDbDimStyleTableRecord
  2
Kyouwa
 70
     0
 41
2.5
 42
0.0
 43
3.75
 44
1.0
 73
     0
 74
     0
 77
     1
 78
     8
140
3.0
141
0.0
143
0.1
146
0.7
147
1.0
171
     3
172
     1
271
     2
272
     2
274
     3
283
     0
284
     8
340
11
341
1C2
342
1C2
  0
ENDTAB
  0
TABLE
  2
BLOCK_RECORD
  5
1
330
0
100
AcDbSymbolTable
 70
    20
  0
BLOCK_RECORD
  5
1F
102
{ACAD_XDICTIONARY
360
474
102
}
330
1
100
AcDbSymbolTableRecord
100
AcDbBlockTableRecord
  2
*Model_Space
340
22
  0
BLOCK_RECORD
  5
1B
102
{ACAD_XDICTIONARY
360
476
102
}
330
1
100
AcDbSymbolTableRecord
100
AcDbBlockTableRecord
  2
*Paper_Space
340
1E
  0
BLOCK_RECORD
  5
23
102
{ACAD_XDICTIONARY
360
478
102
}
330
1
100
AcDbSymbolTableRecord
100
AcDbBlockTableRecord
  2
*Paper_Space0
340
26
  0
BLOCK_RECORD
  5
101
330
1
100
AcDbSymbolTableRecord
100
AcDbBlockTableRecord
  2
A$C77221E2E
340
0
  0
BLOCK_RECORD
  5
1C2
330
1
100
AcDbSymbolTableRecord
100
AcDbBlockTableRecord
  2
_Open30
340
0
102
{BLKREFS
331
4F6E
331
4F6F
331
4F80
331
4F81
331
4F89
331
4F8A
331
4F92
331
4F93
331
4F9B
331
4F9C
331
4FA4
331
4FA5
331
4FAD
331
4FAE
331
4FB6
331
4FB7
331
4FBF
331
4FC0
331
5010
331
5011
331
5019
331
501A
331
5041
331
5042
331
5063
331
5064
331
5070
331
5071
102
}
  0
BLOCK_RECORD
  5
504
330
1
100
AcDbSymbolTableRecord
100
AcDbBlockTableRecord
  2
A$C56C037E7
340
0
  0
BLOCK_RECORD
  5
1BF1
330
1
100
AcDbSymbolTableRecord
100
AcDbBlockTableRecord
  2
A$C313832AB
340
0
  0
BLOCK_RECORD
  5
1F5E
330
1
100
AcDbSymbolTableRecord
100
AcDbBlockTableRecord
  2
A$C1D0B0400
340
0
  0
BLOCK_RECORD
  5
28EE
330
1
100
AcDbSymbolTableRecord
100
AcDbBlockTableRecord
  2
*D6
340
0
  0
BLOCK_RECORD
  5
296D
330
1
100
AcDbSymbolTableRecord
100
AcDbBlockTableRecord
  2
*D7
340
0
  0
BLOCK_RECORD
  5
29E7
330
1
100
AcDbSymbolTableRecord
100
AcDbBlockTableRecord
  2
*D8
340
0
  0
BLOCK_RECORD
  5
29F3
330
1
100
AcDbSymbolTableRecord
100
AcDbBlockTableRecord
  2
*D9
340
0
  0
BLOCK_RECORD
  5
29FF
330
1
100
AcDbSymbolTableRecord
100
AcDbBlockTableRecord
  2
*D10
340
0
  0
BLOCK_RECORD
  5
2A7E
330
1
100
AcDbSymbolTableRecord
100
AcDbBlockTableRecord
  2
*D11
340
0
  0
BLOCK_RECORD
  5
2A8A
330
1
100
AcDbSymbolTableRecord
100
AcDbBlockTableRecord
  2
*D12
340
0
  0
BLOCK_RECORD
  5
4610
330
1
100
AcDbSymbolTableRecord
100
AcDbBlockTableRecord
  2
*D13
340
0
  0
BLOCK_RECORD
  5
4D71
330
1
100
AcDbSymbolTableRecord
100
AcDbBlockTableRecord
  2
*D14
340
0
  0
BLOCK_RECORD
  5
4D7D
330
1
100
AcDbSymbolTableRecord
100
AcDbBlockTableRecord
  2
*D15
340
0
  0
BLOCK_RECORD
  5
4D8A
330
1
100
AcDbSymbolTableRecord
100
AcDbBlockTableRecord
  2
*D16
340
0
  0
BLOCK_RECORD
  5
4E13
330
1
100
AcDbSymbolTableRecord
100
AcDbBlockTableRecord
  2
*D17
340
0
  0
BLOCK_RECORD
  5
505F
330
1
100
AcDbSymbolTableRecord
100
AcDbBlockTableRecord
  2
*D18
340
0
  0
BLOCK_RECORD
  5
506C
330
1
100
AcDbSymbolTableRecord
100
AcDbBlockTableRecord
  2
*D19
340
0
  0
ENDTAB
  0
ENDSEC
  0
SECTION
  2
BLOCKS
  0
BLOCK
  5
20
330
1F
100
AcDbEntity
  8
0
100
AcDbBlockBegin
  2
*Model_Space
 70
     0
 10
0.0
 20
0.0
 30
0.0
  3
*Model_Space
  1

  0
ENDBLK
  5
21
330
1F
100
AcDbEntity
  8
0
100
AcDbBlockEnd
  0
BLOCK
  5
1C
330
1B
100
AcDbEntity
 67
     1
  8
0
100
AcDbBlockBegin
  2
*Paper_Space
 70
     0
 10
0.0
 20
0.0
 30
0.0
  3
*Paper_Space
  1

  0
ENDBLK
  5
1D
330
1B
100
AcDbEntity
 67
     1
  8
0
100
AcDbBlockEnd
  0
BLOCK
  5
24
330
23
100
AcDbEntity
  8
0
100
AcDbBlockBegin
  2
*Paper_Space0
 70
     0
 10
0.0
 20
0.0
 30
0.0
  3
*Paper_Space0
  1

  0
ENDBLK
  5
25
330
23
100
AcDbEntity
  8
0
100
AcDbBlockEnd
  0
BLOCK
  5
10C
330
101
100
AcDbEntity
  8
0
100
AcDbBlockBegin
  2
A$C77221E2E
 70
     0
 10
0.0
 20
0.0
 30
0.0
  3
A$C77221E2E
  1

  0
TEXT
  5
102
330
101
100
AcDbEntity
  8
4
  6
CENTER
100
AcDbText
 10
-1.383100251097403
 20
-4.957558222773967
 30
0.0
 40
5.5
  1
0
 50
90.0
100
AcDbText
  0
TEXT
  5
103
330
101
100
AcDbEntity
  8
4
  6
CENTER
100
AcDbText
 10
-1.383100251097403
 20
-10.95755822277397
 30
0.0
 40
5.5
  1
9
 50
90.0
100
AcDbText
  0
TEXT
  5
104
330
101
100
AcDbEntity
  8
4
  6
CENTER
100
AcDbText
 10
-1.383100251097403
 20
-16.95755822277397
 30
0.0
 40
5.5
  1
8
 50
90.0
100
AcDbText
  0
TEXT
  5
105
330
101
100
AcDbEntity
  8
4
  6
CENTER
100
AcDbText
 10
-1.383100251097403
 20
-22.95755822277397
 30
0.0
 40
5.5
  1
7
 50
90.0
100
AcDbText
  0
TEXT
  5
106
330
101
100
AcDbEntity
  8
4
  6
CENTER
100
AcDbText
 10
-1.383100251097403
 20
-28.95755822277397
 30
0.0
 40
5.5
  1
6
 50
90.0
100
AcDbText
  0
TEXT
  5
107
330
101
100
AcDbEntity
  8
4
  6
CENTER
100
AcDbText
 10
-1.383100251097403
 20
-34.95755822277397
 30
0.0
 40
5.5
  1
5
 50
90.0
100
AcDbText
  0
TEXT
  5
108
330
101
100
AcDbEntity
  8
4
  6
CENTER
100
AcDbText
 10
-1.383100251097403
 20
-40.95755822277395
 30
0.0
 40
5.5
  1
4
 50
90.0
100
AcDbText
  0
TEXT
  5
109
330
101
100
AcDbEntity
  8
4
  6
CENTER
100
AcDbText
 10
-1.383100251097403
 20
-46.95755822277397
 30
0.0
 40
5.5
  1
3
 50
90.0
100
AcDbText
  0
TEXT
  5
10A
330
101
100
AcDbEntity
  8
4
  6
CENTER
100
AcDbText
 10
-1.383100251097403
 20
-52.95755822277397
 30
0.0
 40
5.5
  1
2
 50
90.0
100
AcDbText
  0
TEXT
  5
10B
330
101
100
AcDbEntity
  8
4
  6
CENTER
100
AcDbText
 10
-1.383100251097403
 20
-58.95755822277397
 30
0.0
 40
5.5
  1
1
 50
90.0
100
AcDbText
  0
ENDBLK
  5
10D
330
101
100
AcDbEntity
  8
0
100
AcDbBlockEnd
  0
BLOCK
  5
1C6
330
1C2
100
AcDbEntity
  8
0
100
AcDbBlockBegin
  2
_Open30
 70
     0
 10
0.0
 20
0.0
 30
0.0
  3
_Open30
  1

  0
LINE
  5
1C3
330
1C2
100
AcDbEntity
  8
0
  6
ByBlock
 62
     0
370
    -2
100
AcDbLine
 10
-1.0
 20
0.26794919
 30
0.0
 11
0.0
 21
0.0
 31
0.0
  0
LINE
  5
1C4
330
1C2
100
AcDbEntity
  8
0
  6
ByBlock
 62
     0
370
    -2
100
AcDbLine
 10
0.0
 20
0.0
 30
0.0
 11
-1.0
 21
-0.26794919
 31
0.0
  0
LINE
  5
1C5
330
1C2
100
AcDbEntity
  8
0
  6
ByBlock
 62
     0
370
    -2
100
AcDbLine
 10
0.0
 20
0.0
 30
0.0
 11
-1.0
 21
0.0
 31
0.0
  0
ENDBLK
  5
1C7
330
1C2
100
AcDbEntity
  8
0
100
AcDbBlockEnd
  0
BLOCK
  5
5AA
330
504
100
AcDbEntity
  8
0
100
AcDbBlockBegin
  2
A$C56C037E7
 70
     0
 10
0.0
 20
0.0
 30
0.0
  3
A$C56C037E7
  1

  0
LINE
  5
505
330
504
100
AcDbEntity
  8
0
100
AcDbLine
 10
420.0
 20
0.0
 30
0.0
 11
410.0
 21
0.0
 31
0.0
  0
LINE
  5
506
330
504
100
AcDbEntity
  8
0
100
AcDbLine
 10
0.0
 20
297.0
 30
0.0
 11
0.0
 21
287.0
 31
0.0
  0
LINE
  5
507
330
504
100
AcDbEntity
  8
0
100
AcDbLine
 10
420.0
 20
297.0
 30
0.0
 11
420.0
 21
287.0
 31
0.0
  0
LINE
  5
508
330
504
100
AcDbEntity
  8
0
100
AcDbLine
 10
0.0
 20
297.0
 30
0.0
 11
25.0
 21
297.0
 31
0.0
  0
LINE
  5
509
330
504
100
AcDbEntity
  8
3-線
 62
     4
100
AcDbLine
 10
26.0
 20
287.0
 30
0.0
 11
410.0
 21
287.0
 31
0.0
  0
LINE
  5
50A
330
504
100
AcDbEntity
  8
3-線
100
AcDbLine
 10
26.0
 20
287.0
 30
0.0
 11
26.0
 21
10.0
 31
0.0
  0
LINE
  5
50B
330
504
100
AcDbEntity
  8
3-線
100
AcDbLine
 10
26.0
 20
10.0
 30
0.0
 11
410.0
 21
10.0
 31
0.0
  0
LINE
  5
50C
330
504
100
AcDbEntity
  8
3-線
100
AcDbLine
 10
410.0
 20
287.0
 30
0.0
 11
410.0
 21
10.0
 31
0.0
  0
LINE
  5
50D
330
504
100
AcDbEntity
  8
0
100
AcDbLine
 10
410.0
 20
297.0
 30
0.0
 11
420.0
 21
297.0
 31
0.0
  0
LINE
  5
50E
330
504
100
AcDbEntity
  8
0
100
AcDbLine
 10
420.0
 20
10.0
 30
0.0
 11
420.0
 21
0.0
 31
0.0
  0
LINE
  5
50F
330
504
100
AcDbEntity
  8
0
100
AcDbLine
 10
15.0
 20
0.0
 30
0.0
 11
0.0
 21
0.0
 31
0.0
  0
LINE
  5
510
330
504
100
AcDbEntity
  8
0
100
AcDbLine
 10
0.0
 20
10.0
 30
0.0
 11
0.0
 21
0.0
 31
0.0
  0
LINE
  5
511
330
504
100
AcDbEntity
  8
3-線
 62
     4
100
AcDbLine
 10
364.0
 20
254.5
 30
0.0
 11
410.0
 21
254.5
 31
0.0
  0
LINE
  5
512
330
504
100
AcDbEntity
  8
3-線
100
AcDbLine
 10
364.0
 20
287.0
 30
0.0
 11
364.0
 21
254.5
 31
0.0
  0
LINE
  5
513
330
504
100
AcDbEntity
  8
3-線
100
AcDbLine
 10
402.0
 20
254.5
 30
0.0
 11
402.0
 21
194.5
 31
0.0
  0
LINE
  5
514
330
504
100
AcDbEntity
  8
3-線
 62
     4
100
AcDbLine
 10
402.0
 20
194.5
 30
0.0
 11
410.0
 21
194.5
 31
0.0
  0
LINE
  5
515
330
504
100
AcDbEntity
  8
3-線
 62
     4
100
AcDbLine
 10
402.0
 20
200.5
 30
0.0
 11
410.0
 21
200.5
 31
0.0
  0
LINE
  5
516
330
504
100
AcDbEntity
  8
3-線
 62
     4
100
AcDbLine
 10
402.0
 20
206.5
 30
0.0
 11
410.0
 21
206.5
 31
0.0
  0
LINE
  5
517
330
504
100
AcDbEntity
  8
3-線
 62
     4
100
AcDbLine
 10
402.0
 20
212.5
 30
0.0
 11
410.0
 21
212.5
 31
0.0
  0
LINE
  5
518
330
504
100
AcDbEntity
  8
3-線
 62
     4
100
AcDbLine
 10
402.0
 20
218.5
 30
0.0
 11
410.0
 21
218.5
 31
0.0
  0
LINE
  5
519
330
504
100
AcDbEntity
  8
3-線
 62
     4
100
AcDbLine
 10
402.0
 20
224.5
 30
0.0
 11
410.0
 21
224.5
 31
0.0
  0
LINE
  5
51A
330
504
100
AcDbEntity
  8
3-線
 62
     4
100
AcDbLine
 10
402.0
 20
230.5
 30
0.0
 11
410.0
 21
230.5
 31
0.0
  0
LINE
  5
51B
330
504
100
AcDbEntity
  8
3-線
 62
     4
100
AcDbLine
 10
402.0
 20
236.5
 30
0.0
 11
410.0
 21
236.5
 31
0.0
  0
LINE
  5
51C
330
504
100
AcDbEntity
  8
3-線
 62
     4
100
AcDbLine
 10
402.0
 20
242.5
 30
0.0
 11
410.0
 21
242.5
 31
0.0
  0
LINE
  5
51D
330
504
100
AcDbEntity
  8
3-線
 62
     4
100
AcDbLine
 10
402.0
 20
248.5
 30
0.0
 11
410.0
 21
248.5
 31
0.0
  0
LINE
  5
51E
330
504
100
AcDbEntity
  8
2-線
100
AcDbLine
 10
370.0
 20
287.0
 30
0.0
 11
370.0
 21
254.5
 31
0.0
  0
LINE
  5
51F
330
504
100
AcDbEntity
  8
2-線
100
AcDbLine
 10
397.8
 20
287.0
 30
0.0
 11
397.8
 21
254.5
 31
0.0
  0
LINE
  5
520
330
504
100
AcDbEntity
  8
2-線
100
AcDbLine
 10
370.0
 20
280.05
 30
0.0
 11
410.0
 21
280.05
 31
0.0
  0
LINE
  5
521
330
504
100
AcDbEntity
  8
2-線
100
AcDbLine
 10
41.0
 20
287.0
 30
0.0
 11
41.0
 21
269.0
 31
0.0
  0
LINE
  5
522
330
504
100
AcDbEntity
  8
2-線
100
AcDbLine
 10
81.0
 20
287.0
 30
0.0
 11
81.0
 21
269.0
 31
0.0
  0
LINE
  5
523
330
504
100
AcDbEntity
  8
2-線
100
AcDbLine
 10
26.0
 20
269.0
 30
0.0
 11
136.0
 21
269.0
 31
0.0
  0
LINE
  5
524
330
504
100
AcDbEntity
  8
2-線
100
AcDbLine
 10
96.0
 20
287.0
 30
0.0
 11
96.0
 21
269.0
 31
0.0
  0
LINE
  5
525
330
504
100
AcDbEntity
  8
2-線
100
AcDbLine
 10
136.0
 20
287.0
 30
0.0
 11
136.0
 21
269.0
 31
0.0
  0
LINE
  5
526
330
504
100
AcDbEntity
  8
2-線
100
AcDbLine
 10
36.0
 20
22.0
 30
0.0
 11
36.0
 21
10.0
 31
0.0
  0
LINE
  5
527
330
504
100
AcDbEntity
  8
2-線
100
AcDbLine
 10
51.0
 20
22.0
 30
0.0
 11
51.0
 21
10.0
 31
0.0
  0
LINE
  5
528
330
504
100
AcDbEntity
  8
2-線
100
AcDbLine
 10
61.0
 20
22.0
 30
0.0
 11
61.0
 21
10.0
 31
0.0
  0
LINE
  5
529
330
504
100
AcDbEntity
  8
2-線
100
AcDbLine
 10
111.0
 20
22.0
 30
0.0
 11
111.0
 21
10.0
 31
0.0
  0
LINE
  5
52A
330
504
100
AcDbEntity
  8
2-線
100
AcDbLine
 10
26.0
 20
16.0
 30
0.0
 11
111.0
 21
16.0
 31
0.0
  0
LINE
  5
52B
330
504
100
AcDbEntity
  8
2-線
100
AcDbLine
 10
26.0
 20
22.0
 30
0.0
 11
111.0
 21
22.0
 31
0.0
  0
LINE
  5
52C
330
504
100
AcDbEntity
  8
2-線
100
AcDbLine
 10
207.0
 20
22.0
 30
0.0
 11
410.0
 21
22.0
 31
0.0
  0
LINE
  5
52D
330
504
100
AcDbEntity
  8
2-線
100
AcDbLine
 10
207.0
 20
34.0
 30
0.0
 11
410.0
 21
34.0
 31
0.0
  0
LINE
  5
52E
330
504
100
AcDbEntity
  8
2-線
100
AcDbLine
 10
247.0
 20
40.0
 30
0.0
 11
410.0
 21
40.0
 31
0.0
  0
LINE
  5
52F
330
504
100
AcDbEntity
  8
2-線
100
AcDbLine
 10
247.0
 20
46.0
 30
0.0
 11
410.0
 21
46.0
 31
0.0
  0
LINE
  5
530
330
504
100
AcDbEntity
  8
2-線
100
AcDbLine
 10
247.0
 20
76.0
 30
0.0
 11
247.0
 21
34.0
 31
0.0
  0
LINE
  5
531
330
504
100
AcDbEntity
  8
2-線
100
AcDbLine
 10
280.0
 20
34.0
 30
0.0
 11
280.0
 21
22.0
 31
0.0
  0
LINE
  5
532
330
504
100
AcDbEntity
  8
2-線
100
AcDbLine
 10
295.0
 20
34.0
 30
0.0
 11
295.0
 21
10.0
 31
0.0
  0
LINE
  5
533
330
504
100
AcDbEntity
  8
2-線
100
AcDbLine
 10
300.0
 20
34.0
 30
0.0
 11
300.0
 21
10.0
 31
0.0
  0
LINE
  5
534
330
504
100
AcDbEntity
  8
2-線
100
AcDbLine
 10
257.0
 20
76.0
 30
0.0
 11
257.0
 21
34.0
 31
0.0
  0
LINE
  5
535
330
504
100
AcDbEntity
  8
2-線
100
AcDbLine
 10
345.0
 20
34.0
 30
0.0
 11
345.0
 21
10.0
 31
0.0
  0
LINE
  5
536
330
504
100
AcDbEntity
  8
2-線
100
AcDbLine
 10
350.0
 20
34.0
 30
0.0
 11
350.0
 21
10.0
 31
0.0
  0
LINE
  5
537
330
504
100
AcDbEntity
  8
2-線
100
AcDbLine
 10
307.0
 20
76.0
 30
0.0
 11
307.0
 21
34.0
 31
0.0
  0
LINE
  5
538
330
504
100
AcDbEntity
  8
2-線
100
AcDbLine
 10
340.0
 20
76.00000000000003
 30
0.0
 11
340.0
 21
34.0
 31
0.0
  0
LINE
  5
539
330
504
100
AcDbEntity
  8
2-線
100
AcDbLine
 10
355.0
 20
76.0
 30
0.0
 11
355.0
 21
34.0
 31
0.0
  0
LINE
  5
53A
330
504
100
AcDbEntity
  8
2-線
100
AcDbLine
 10
375.0
 20
76.00000000000003
 30
0.0
 11
375.0
 21
34.0
 31
0.0
  0
TEXT
  5
53B
330
504
100
AcDbEntity
  8
2-線
100
AcDbText
 10
367.0
 20
285.59
 30
0.0
 40
2.799999999999998
  1
削り加工部一般公差
 41
1.199999999999999
  7
縦
 72
     4
 11
367.0
 21
270.75
 31
0.0
100
AcDbText
  0
TEXT
  5
53C
330
504
100
AcDbEntity
  8
2-線
100
AcDbText
 10
372.676
 20
284.1125000000001
 30
0.0
 40
2.299999999999998
  1
呼び寸法ノ区分
 41
1.199999999999999
 72
     4
 11
383.9
 21
285.2625000000001
 31
0.0
100
AcDbText
  0
TEXT
  5
53D
330
504
100
AcDbEntity
  8
2-線
100
AcDbText
 10
374.424
 20
280.6375
 30
0.0
 40
2.299999999999998
  1
単位　　ｍｍ
 41
1.199999999999999
 72
     4
 11
383.9
 21
281.7875
 31
0.0
100
AcDbText
  0
TEXT
  5
53E
330
504
100
AcDbEntity
  8
2-線
100
AcDbText
 10
401.2166666666665
 20
284.1125000000001
 30
0.0
 40
2.299999999999998
  1
JIS
 72
     4
 11
403.8999999999998
 21
285.2625000000001
 31
0.0
100
AcDbText
  0
TEXT
  5
53F
330
504
100
AcDbEntity
  8
2-線
100
AcDbText
 10
398.7633333333332
 20
280.6375
 30
0.0
 40
2.299999999999998
  1
（中級）
 72
     4
 11
403.8999999999998
 21
281.7875
 31
0.0
100
AcDbText
  0
TEXT
  5
540
330
504
100
AcDbEntity
  8
2-線
100
AcDbText
 10
370.5
 20
255.175
 30
0.0
 40
2.299999999999998
  1
１０００を超え２０００以下
 41
0.75
 11
370.5
 21
256.325
 31
0.0
100
AcDbText
 73
     2
  0
TEXT
  5
541
330
504
100
AcDbEntity
  8
2-線
100
AcDbText
 10
399.2079999999999
 20
255.175
 30
0.0
 40
2.299999999999998
  1
±１．２
 41
0.9
 72
     1
 11
403.8999999999998
 21
256.325
 31
0.0
100
AcDbText
 73
     2
  0
TEXT
  5
542
330
504
100
AcDbEntity
  8
2-線
100
AcDbText
 10
408.75
 20
250.125
 30
0.0
 40
5.5
  1
0
 50
90.0
 72
     4
 11
406.0
 21
251.5
 31
0.0
100
AcDbText
  0
TEXT
  5
543
330
504
100
AcDbEntity
  8
2-線
100
AcDbText
 10
408.75
 20
243.6666666666666
 30
0.0
 40
5.5
  1
9
 50
90.0
 72
     4
 11
406.0
 21
245.5
 31
0.0
100
AcDbText
  0
TEXT
  5
544
330
504
100
AcDbEntity
  8
2-線
100
AcDbText
 10
408.75
 20
237.6666666666666
 30
0.0
 40
5.5
  1
8
 50
90.0
 72
     4
 11
406.0
 21
239.5
 31
0.0
100
AcDbText
  0
TEXT
  5
545
330
504
100
AcDbEntity
  8
2-線
100
AcDbText
 10
408.75
 20
231.6666666666666
 30
0.0
 40
5.5
  1
7
 50
90.0
 72
     4
 11
406.0
 21
233.5
 31
0.0
100
AcDbText
  0
TEXT
  5
546
330
504
100
AcDbEntity
  8
2-線
100
AcDbText
 10
408.75
 20
225.6666666666667
 30
0.0
 40
5.5
  1
6
 50
90.0
 72
     4
 11
406.0
 21
227.5
 31
0.0
100
AcDbText
  0
TEXT
  5
547
330
504
100
AcDbEntity
  8
2-線
100
AcDbText
 10
408.75
 20
219.6666666666667
 30
0.0
 40
5.5
  1
5
 50
90.0
 72
     4
 11
406.0
 21
221.5
 31
0.0
100
AcDbText
  0
TEXT
  5
548
330
504
100
AcDbEntity
  8
2-線
100
AcDbText
 10
408.75
 20
213.6666666666667
 30
0.0
 40
5.5
  1
4
 50
90.0
 72
     4
 11
406.0
 21
215.5
 31
0.0
100
AcDbText
  0
TEXT
  5
549
330
504
100
AcDbEntity
  8
2-線
100
AcDbText
 10
408.75
 20
207.6666666666667
 30
0.0
 40
5.5
  1
3
 50
90.0
 72
     4
 11
406.0
 21
209.5
 31
0.0
100
AcDbText
  0
TEXT
  5
54A
330
504
100
AcDbEntity
  8
2-線
100
AcDbText
 10
408.75
 20
201.6666666666667
 30
0.0
 40
5.5
  1
2
 50
90.0
 72
     4
 11
406.0
 21
203.5
 31
0.0
100
AcDbText
  0
TEXT
  5
54B
330
504
100
AcDbEntity
  8
2-線
100
AcDbText
 10
408.75
 20
196.5833333333333
 30
0.0
 40
5.5
  1
1
 50
90.0
 72
     4
 11
406.0
 21
197.5
 31
0.0
100
AcDbText
  0
TEXT
  5
54C
330
504
100
AcDbEntity
  8
2-線
100
AcDbText
 10
31.63333333333333
 20
280.5000000000001
 30
0.0
 40
4.0
  1
熱
 72
     4
 11
33.5
 21
282.5000000000001
 31
0.0
100
AcDbText
  0
TEXT
  5
54D
330
504
100
AcDbEntity
  8
2-線
100
AcDbText
 10
28.63333333333333
 20
271.5000000000001
 30
0.0
 40
4.0
  1
処
 72
     4
 11
30.5
 21
273.5000000000001
 31
0.0
100
AcDbText
  0
TEXT
  5
54E
330
504
100
AcDbEntity
  8
2-線
100
AcDbText
 10
34.63333333333333
 20
271.6333333333334
 30
0.0
 40
4.0
  1
理
 72
     4
 11
36.5
 21
273.5000000000001
 31
0.0
100
AcDbText
  0
TEXT
  5
54F
330
504
100
AcDbEntity
  8
2-線
100
AcDbText
 10
83.63333333333335
 20
271.5000000000001
 30
0.0
 40
4.0
  1
処
 72
     4
 11
85.5
 21
273.5000000000001
 31
0.0
100
AcDbText
  0
TEXT
  5
550
330
504
100
AcDbEntity
  8
2-線
100
AcDbText
 10
89.63333333333334
 20
271.6333333333334
 30
0.0
 40
4.0
  1
理
 72
     4
 11
91.5
 21
273.5000000000001
 31
0.0
100
AcDbText
  0
TEXT
  5
551
330
504
100
AcDbEntity
  8
2-線
100
AcDbText
 10
83.63333333333335
 20
280.4999999999999
 30
0.0
 40
4.0
  1
表
 72
     4
 11
85.50000000000002
 21
282.4999999999999
 31
0.0
100
AcDbText
  0
TEXT
  5
552
330
504
100
AcDbEntity
  8
2-線
100
AcDbText
 10
89.63333333333338
 20
280.6333333333332
 30
0.0
 40
4.0
  1
面
 72
     4
 11
91.50000000000003
 21
282.4999999999999
 31
0.0
100
AcDbText
  0
TEXT
  5
553
330
504
100
AcDbEntity
  8
2-線
100
AcDbText
 10
27.8
 20
11.5
 30
0.0
 40
3.0
  1
符号
 72
     4
 11
31.0
 21
13.0
 31
0.0
100
AcDbText
  0
TEXT
  5
554
330
504
100
AcDbEntity
  8
2-線
100
AcDbText
 10
38.7
 20
11.5
 30
0.0
 40
3.0
  1
年月日
 72
     4
 11
43.5
 21
13.0
 31
0.0
100
AcDbText
  0
TEXT
  5
555
330
504
100
AcDbEntity
  8
2-線
100
AcDbText
 10
52.9
 20
11.5
 30
0.0
 40
3.0
  1
担当
 72
     4
 11
56.0
 21
13.0
 31
0.0
100
AcDbText
  0
TEXT
  5
556
330
504
100
AcDbEntity
  8
2-線
100
AcDbText
 10
73.79999999999999
 20
11.5
 30
0.0
 40
3.0
  1
改　正　記　事
 72
     4
 11
86.0
 21
13.0
 31
0.0
100
AcDbText
  0
TEXT
  5
557
330
504
100
AcDbEntity
  8
3-線
100
AcDbText
 10
213.4333333333334
 20
12.5
 30
0.0
 40
7.0
  1
協和工業株式会社
 41
1.149999999999999
 72
     4
 11
251.0
 21
16.0
 31
0.0
100
AcDbText
  0
TEXT
  5
558
330
504
100
AcDbEntity
  8
2-線
100
AcDbText
 10
248.08
 20
29.6
 30
0.0
 40
3.0
  1
Ｍ．Ｙ
 41
0.8
 72
     4
 11
252.0
 21
31.0
 31
0.0
100
AcDbText
  0
TEXT
  5
559
330
504
100
AcDbEntity
  8
2-線
100
AcDbText
 10
246.56
 20
23.6
 30
0.0
 40
3.0
  1
０１，０８，０１
 41
0.4
 72
     4
 11
252.0
 21
25.0
 31
0.0
100
AcDbText
  0
TEXT
  5
55A
330
504
100
AcDbEntity
  8
2-線
100
AcDbText
 10
265.8
 20
26.0
 30
0.0
 40
4.0
  1
1:1
 41
1.199999999999999
 72
     4
 11
269.0
 21
28.0
 31
0.0
100
AcDbText
  0
TEXT
  5
55B
330
504
100
AcDbEntity
  8
2-線
100
AcDbText
 10
282.5
 20
26.5
 30
0.0
 40
3.0
  1
三角法
 72
     4
 11
287.5
 21
28.0
 31
0.0
100
AcDbText
  0
TEXT
  5
55C
330
504
100
AcDbEntity
  8
2-線
100
AcDbText
 10
247.9
 20
35.6
 30
0.0
 40
3.0
  1
Ｎｏ．
 72
     4
 11
252.0
 21
37.0
 31
0.0
100
AcDbText
  0
LINE
  5
55D
330
504
100
AcDbEntity
  8
2-線
100
AcDbLine
 10
275.0
 20
34.0
 30
0.0
 11
275.0
 21
22.0
 31
0.0
  0
LINE
  5
55E
330
504
100
AcDbEntity
  8
2-線
100
AcDbLine
 10
263.0
 20
34.0
 30
0.0
 11
263.0
 21
22.0
 31
0.0
  0
LINE
  5
55F
330
504
100
AcDbEntity
  8
2-線
100
AcDbLine
 10
258.0
 20
34.0
 30
0.0
 11
258.0
 21
22.0
 31
0.0
  0
LINE
  5
560
330
504
100
AcDbEntity
  8
2-線
100
AcDbLine
 10
246.0
 20
34.0
 30
0.0
 11
246.0
 21
22.0
 31
0.0
  0
LINE
  5
561
330
504
100
AcDbEntity
  8
2-線
100
AcDbLine
 10
241.0
 20
34.0
 30
0.0
 11
241.0
 21
22.0
 31
0.0
  0
LINE
  5
562
330
504
100
AcDbEntity
  8
2-線
100
AcDbLine
 10
229.0
 20
34.0
 30
0.0
 11
229.0
 21
22.0
 31
0.0
  0
LINE
  5
563
330
504
100
AcDbEntity
  8
2-線
100
AcDbLine
 10
224.0
 20
34.0
 30
0.0
 11
224.0
 21
22.0
 31
0.0
  0
LINE
  5
564
330
504
100
AcDbEntity
  8
2-線
100
AcDbLine
 10
212.0
 20
34.0
 30
0.0
 11
212.0
 21
22.0
 31
0.0
  0
LINE
  5
565
330
504
100
AcDbEntity
  8
2-線
100
AcDbLine
 10
207.0
 20
34.0
 30
0.0
 11
207.0
 21
10.0
 31
0.0
  0
TEXT
  5
566
330
504
100
AcDbEntity
  8
2-線
100
AcDbText
 10
302.0
 20
26.25
 30
0.0
 40
3.5
  1
  トキコ（株）   殿
 11
302.0
 21
28.0
 31
0.0
100
AcDbText
 73
     2
  0
TEXT
  5
567
330
504
100
AcDbEntity
  8
2-線
100
AcDbText
 10
273.3
 20
35.5
 30
0.0
 40
3.0
  1
図　　　番
 72
     4
 11
282.0
 21
37.0
 31
0.0
100
AcDbText
  0
TEXT
  5
568
330
504
100
AcDbEntity
  8
2-線
100
AcDbText
 10
316.8
 20
35.5
 30
0.0
 40
3.0
  1
品　　名
 72
     4
 11
323.5
 21
37.0
 31
0.0
100
AcDbText
  0
TEXT
  5
569
330
504
100
AcDbEntity
  8
2-線
100
AcDbText
 10
344.3
 20
35.5
 30
0.0
 40
3.0
  1
個数
 72
     4
 11
347.5
 21
37.0
 31
0.0
100
AcDbText
  0
TEXT
  5
56A
330
504
100
AcDbEntity
  8
2-線
100
AcDbText
 10
360.0
 20
35.5
 30
0.0
 40
3.0
  1
材　質
 72
     4
 11
365.0
 21
37.0
 31
0.0
100
AcDbText
  0
TEXT
  5
56B
330
504
100
AcDbEntity
  8
2-線
100
AcDbText
 10
383.9
 20
35.5
 30
0.0
 40
3.0
  1
備　　　考
 72
     4
 11
392.5
 21
37.0
 31
0.0
100
AcDbText
  0
TEXT
  5
56C
330
504
100
AcDbEntity
  8
2-線
100
AcDbText
 10
352.0
 20
29.25
 30
0.0
 40
3.5
  1
 ８型　中間軸付き
 11
352.0
 21
31.0
 31
0.0
100
AcDbText
 73
     2
  0
TEXT
  5
56D
330
504
100
AcDbEntity
  8
2-線
100
AcDbText
 10
352.0
 20
23.25
 30
0.0
 40
3.5
  1
ユニバーサル･ジョイント
 11
352.0
 21
25.0
 31
0.0
100
AcDbText
 73
     2
  0
TEXT
  5
56E
330
504
100
AcDbEntity
  8
2-線
100
AcDbText
 10
352.0
 20
14.0
 30
0.0
 40
4.0
  1
ＳＰ－０８－００Ｃ－００
 41
0.85
 11
352.0
 21
16.0
 31
0.0
100
AcDbText
 73
     2
  0
TEXT
  5
56F
330
504
100
AcDbEntity
  8
2-線
100
AcDbText
 10
340.6
 20
41.5
 30
0.0
 40
3.0
  1
１ｓｅｔ
 72
     4
 11
347.5
 21
43.0
 31
0.0
100
AcDbText
  0
TEXT
  5
570
330
504
100
AcDbEntity
  8
2-線
100
AcDbText
 10
250.7
 20
41.5
 30
0.0
 40
3.0
  1
１
 72
     4
 11
252.0
 21
43.0
 31
0.0
100
AcDbText
  0
TEXT
  5
571
330
504
100
AcDbEntity
  8
2-線
100
AcDbText
 10
259.0
 20
41.5
 30
0.0
 40
3.0
  1
ＳＣ－０８－００Ｃ
 41
0.9
 11
259.0
 21
43.0
 31
0.0
100
AcDbText
 73
     2
  0
TEXT
  5
572
330
504
100
AcDbEntity
  8
2-線
100
AcDbText
 10
309.0
 20
41.5
 30
0.0
 40
3.0
  1
Ｕ．ジョイント
 41
0.9
 11
309.0
 21
43.0
 31
0.0
100
AcDbText
 73
     2
  0
TEXT
  5
573
330
504
100
AcDbEntity
  8
2-線
100
AcDbText
 10
357.0
 20
41.5
 30
0.0
 40
3.0
  1
ＳＣＭ４１５
 41
0.8
 11
357.0
 21
43.0
 31
0.0
100
AcDbText
 73
     2
  0
TEXT
  5
574
330
504
100
AcDbEntity
  8
2-線
100
AcDbText
 10
377.0
 20
41.5
 30
0.0
 40
3.0
  1
浸炭焼き入れ
 11
377.0
 21
43.0
 31
0.0
100
AcDbText
 73
     2
  0
TEXT
  5
575
330
504
100
AcDbEntity
  8
2-線
100
AcDbText
 10
277.5
 20
32.76
 30
0.0
 40
2.799999999999998
  1
投影法
 41
0.9
  7
縦
 72
     4
 11
277.5
 21
28.0
 31
0.0
100
AcDbText
  0
TEXT
  5
576
330
504
100
AcDbEntity
  8
2-線
100
AcDbText
 10
226.5
 20
32.76
 30
0.0
 40
2.799999999999998
  1
検　図
 41
0.9
  7
縦
 72
     4
 11
226.5
 21
28.0
 31
0.0
100
AcDbText
  0
TEXT
  5
577
330
504
100
AcDbEntity
  8
2-線
100
AcDbText
 10
243.5
 20
32.76
 30
0.0
 40
2.799999999999998
  1
製　図
 41
0.9
  7
縦
 72
     4
 11
243.5
 21
28.0
 31
0.0
100
AcDbText
  0
TEXT
  5
578
330
504
100
AcDbEntity
  8
2-線
100
AcDbText
 10
260.5
 20
32.85333333333333
 30
0.0
 40
2.799999999999998
  1
尺　度
 41
0.9
  7
縦
 72
     4
 11
260.5
 21
28.0
 31
0.0
100
AcDbText
  0
TEXT
  5
579
330
504
100
AcDbEntity
  8
2-線
100
AcDbText
 10
297.5
 20
32.76
 30
0.0
 40
2.799999999999998
  1
客　先
 41
0.9
  7
縦
 72
     4
 11
297.5
 21
28.0
 31
0.0
100
AcDbText
  0
TEXT
  5
57A
330
504
100
AcDbEntity
  8
2-線
100
AcDbText
 10
297.5
 20
20.76
 30
0.0
 40
2.799999999999998
  1
整　番
 41
0.9
  7
縦
 72
     4
 11
297.5
 21
16.0
 31
0.0
100
AcDbText
  0
TEXT
  5
57B
330
504
100
AcDbEntity
  8
2-線
100
AcDbText
 10
347.5
 20
32.76
 30
0.0
 40
2.799999999999998
  1
名　称
 41
0.9
  7
縦
 72
     4
 11
347.5
 21
28.0
 31
0.0
100
AcDbText
  0
TEXT
  5
57C
330
504
100
AcDbEntity
  8
2-線
100
AcDbText
 10
347.5
 20
20.85333333333333
 30
0.0
 40
2.799999999999998
  1
図　番
 41
0.9
  7
縦
 72
     4
 11
347.5
 21
16.0
 31
0.0
100
AcDbText
  0
TEXT
  5
57D
330
504
100
AcDbEntity
  8
2-線
100
AcDbText
 10
209.5
 20
32.76
 30
0.0
 40
2.799999999999998
  1
認　可
 41
0.9
  7
縦
 72
     4
 11
209.5
 21
28.0
 31
0.0
100
AcDbText
  0
LINE
  5
57E
330
504
100
AcDbEntity
  8
2-線
100
AcDbLine
 10
370.0
 20
283.525
 30
0.0
 11
410.0
 21
283.525
 31
0.0
  0
TEXT
  5
57F
330
504
100
AcDbEntity
  8
2-線
100
AcDbText
 10
399.2079999999999
 20
258.825
 30
0.0
 40
2.299999999999998
  1
±０．８
 41
0.9
 72
     1
 11
403.8999999999998
 21
259.975
 31
0.0
100
AcDbText
 73
     2
  0
TEXT
  5
580
330
504
100
AcDbEntity
  8
2-線
100
AcDbText
 10
399.2079999999999
 20
262.475
 30
0.0
 40
2.299999999999998
  1
±０．５
 41
0.9
 72
     1
 11
403.8999999999998
 21
263.6249999999999
 31
0.0
100
AcDbText
 73
     2
  0
TEXT
  5
581
330
504
100
AcDbEntity
  8
2-線
100
AcDbText
 10
399.2079999999999
 20
266.1249999999999
 30
0.0
 40
2.299999999999998
  1
±０．３
 41
0.9
 72
     1
 11
403.8999999999998
 21
267.2749999999999
 31
0.0
100
AcDbText
 73
     2
  0
TEXT
  5
582
330
504
100
AcDbEntity
  8
2-線
100
AcDbText
 10
399.2079999999999
 20
269.7749999999999
 30
0.0
 40
2.299999999999998
  1
±０．２
 41
0.9
 72
     1
 11
403.8999999999998
 21
270.9249999999999
 31
0.0
100
AcDbText
 73
     2
  0
TEXT
  5
583
330
504
100
AcDbEntity
  8
2-線
100
AcDbText
 10
399.4839999999999
 20
273.4249999999999
 30
0.0
 40
2.299999999999998
  1
±０．１
 41
0.9
 72
     1
 11
403.8999999999998
 21
274.5749999999999
 31
0.0
100
AcDbText
 73
     2
  0
TEXT
  5
584
330
504
100
AcDbEntity
  8
2-線
100
AcDbText
 10
399.4839999999999
 20
277.0749999999999
 30
0.0
 40
2.299999999999998
  1
±０．１
 41
0.9
 72
     1
 11
403.8999999999998
 21
278.2249999999999
 31
0.0
100
AcDbText
 73
     2
  0
TEXT
  5
585
330
504
100
AcDbEntity
  8
2-線
100
AcDbText
 10
370.5
 20
258.825
 30
0.0
 40
2.299999999999998
  1
　３１５を超え１０００以下
 41
0.75
 11
370.5
 21
259.975
 31
0.0
100
AcDbText
 73
     2
  0
TEXT
  5
586
330
504
100
AcDbEntity
  8
2-線
100
AcDbText
 10
370.5
 20
262.475
 30
0.0
 40
2.299999999999998
  1
　１２０を超え　３１５以下
 41
0.75
 11
370.5
 21
263.6249999999999
 31
0.0
100
AcDbText
 73
     2
  0
TEXT
  5
587
330
504
100
AcDbEntity
  8
2-線
100
AcDbText
 10
370.5
 20
266.1249999999999
 30
0.0
 40
2.299999999999998
  1
　　３０を超え　１２０以下
 41
0.75
 11
370.5
 21
267.2749999999999
 31
0.0
100
AcDbText
 73
     2
  0
TEXT
  5
588
330
504
100
AcDbEntity
  8
2-線
100
AcDbText
 10
370.5
 20
269.7749999999999
 30
0.0
 40
2.299999999999998
  1
　　　６を超え　　３０以下
 41
0.75
 11
370.5
 21
270.9249999999999
 31
0.0
100
AcDbText
 73
     2
  0
TEXT
  5
589
330
504
100
AcDbEntity
  8
2-線
100
AcDbText
 10
370.5
 20
273.4249999999999
 30
0.0
 40
2.299999999999998
  1
　　　３を超え　　　６以下
 41
0.75
 11
370.5
 21
274.5749999999999
 31
0.0
100
AcDbText
 73
     2
  0
TEXT
  5
58A
330
504
100
AcDbEntity
  8
2-線
100
AcDbText
 10
370.5
 20
277.0749999999999
 30
0.0
 40
2.299999999999998
  1
  ０．５を超え　　　３以下
 41
0.75
 11
370.5
 21
278.2249999999999
 31
0.0
100
AcDbText
 73
     2
  0
LINE
  5
58B
330
504
100
AcDbEntity
  8
2-線
100
AcDbLine
 10
247.0
 20
52.0
 30
0.0
 11
410.0
 21
52.0
 31
0.0
  0
TEXT
  5
58C
330
504
100
AcDbEntity
  8
2-線
100
AcDbText
 10
259.0
 20
47.5
 30
0.0
 40
3.0
  1
ＳＣ－０８－００Ｃ
 41
0.9
 11
259.0
 21
49.0
 31
0.0
100
AcDbText
 73
     2
  0
TEXT
  5
58D
330
504
100
AcDbEntity
  8
2-線
100
AcDbText
 10
250.6
 20
47.5
 30
0.0
 40
3.0
  1
２
 72
     4
 11
252.0
 21
49.0
 31
0.0
100
AcDbText
  0
TEXT
  5
58E
330
504
100
AcDbEntity
  8
2-線
100
AcDbText
 10
309.0
 20
47.5
 30
0.0
 40
3.0
  1
Ｕ．ジョイント
 41
0.9
 11
309.0
 21
49.0
 31
0.0
100
AcDbText
 73
     2
  0
TEXT
  5
58F
330
504
100
AcDbEntity
  8
2-線
100
AcDbText
 10
357.0
 20
47.5
 30
0.0
 40
3.0
  1
ＳＣＭ４１５
 41
0.8
 11
357.0
 21
49.0
 31
0.0
100
AcDbText
 73
     2
  0
TEXT
  5
590
330
504
100
AcDbEntity
  8
2-線
100
AcDbText
 10
340.6
 20
47.5
 30
0.0
 40
3.0
  1
１ｓｅｔ
 72
     4
 11
347.5
 21
49.0
 31
0.0
100
AcDbText
  0
TEXT
  5
591
330
504
100
AcDbEntity
  8
2-線
100
AcDbText
 10
377.0
 20
47.5
 30
0.0
 40
3.0
  1
浸炭焼き入れ
 11
377.0
 21
49.0
 31
0.0
100
AcDbText
 73
     2
  0
LINE
  5
592
330
504
100
AcDbEntity
  8
2-線
100
AcDbLine
 10
247.0
 20
58.0
 30
0.0
 11
410.0
 21
58.0
 31
0.0
  0
TEXT
  5
593
330
504
100
AcDbEntity
  8
2-線
100
AcDbText
 10
259.0
 20
53.5
 30
0.0
 40
3.0
  1
ＬＩＶ１０－００－０００
 41
0.9
 11
259.0
 21
55.0
 31
0.0
100
AcDbText
 73
     2
  0
TEXT
  5
594
330
504
100
AcDbEntity
  8
2-線
100
AcDbText
 10
250.6
 20
53.5
 30
0.0
 40
3.0
  1
３
 72
     4
 11
252.0
 21
55.0
 31
0.0
100
AcDbText
  0
TEXT
  5
595
330
504
100
AcDbEntity
  8
2-線
100
AcDbText
 10
309.0
 20
53.5
 30
0.0
 40
3.0
  1
スリーブ
 11
309.0
 21
55.0
 31
0.0
100
AcDbText
 73
     2
  0
TEXT
  5
596
330
504
100
AcDbEntity
  8
2-線
100
AcDbText
 10
357.0
 20
53.5
 30
0.0
 40
3.0
  1
Ｓ４５Ｃ
 41
0.8
 11
357.0
 21
55.0
 31
0.0
100
AcDbText
 73
     2
  0
TEXT
  5
597
330
504
100
AcDbEntity
  8
2-線
100
AcDbText
 10
346.2
 20
53.5
 30
0.0
 40
3.0
  1
１
 72
     4
 11
347.5
 21
55.0
 31
0.0
100
AcDbText
  0
LINE
  5
598
330
504
100
AcDbEntity
  8
2-線
100
AcDbLine
 10
247.0
 20
64.0
 30
0.0
 11
410.0
 21
64.0
 31
0.0
  0
TEXT
  5
599
330
504
100
AcDbEntity
  8
2-線
100
AcDbText
 10
259.0
 20
59.5
 30
0.0
 40
3.0
  1
ＬＩＳ１０－ＳＳ－００１
 41
0.9
 11
259.0
 21
61.0
 31
0.0
100
AcDbText
 73
     2
  0
TEXT
  5
59A
330
504
100
AcDbEntity
  8
2-線
100
AcDbText
 10
250.6
 20
59.5
 30
0.0
 40
3.0
  1
４
 72
     4
 11
252.0
 21
61.0
 31
0.0
100
AcDbText
  0
TEXT
  5
59B
330
504
100
AcDbEntity
  8
2-線
100
AcDbText
 10
309.0
 20
59.5
 30
0.0
 40
3.0
  1
スプライン軸
 41
0.9
 11
309.0
 21
61.0
 31
0.0
100
AcDbText
 73
     2
  0
TEXT
  5
59C
330
504
100
AcDbEntity
  8
2-線
100
AcDbText
 10
357.0
 20
59.5
 30
0.0
 40
3.0
  1
ＳＫ４
 41
0.8
 11
357.0
 21
61.0
 31
0.0
100
AcDbText
 73
     2
  0
TEXT
  5
59D
330
504
100
AcDbEntity
  8
2-線
100
AcDbText
 10
346.2
 20
59.5
 30
0.0
 40
3.0
  1
１
 72
     4
 11
347.5
 21
61.0
 31
0.0
100
AcDbText
  0
LINE
  5
59E
330
504
100
AcDbEntity
  8
2-線
100
AcDbLine
 10
247.0
 20
70.0
 30
0.0
 11
410.0
 21
70.0
 31
0.0
  0
TEXT
  5
59F
330
504
100
AcDbEntity
  8
2-線
100
AcDbText
 10
259.0
 20
65.5
 30
0.0
 40
3.0
  1
ＬＬＰ０８－００－０００
 41
0.9
 11
259.0
 21
67.0
 31
0.0
100
AcDbText
 73
     2
  0
TEXT
  5
5A0
330
504
100
AcDbEntity
  8
2-線
100
AcDbText
 10
250.5
 20
65.5
 30
0.0
 40
3.0
  1
５
 72
     4
 11
252.0
 21
67.0
 31
0.0
100
AcDbText
  0
TEXT
  5
5A1
330
504
100
AcDbEntity
  8
2-線
100
AcDbText
 10
309.0
 20
65.5
 30
0.0
 40
3.0
  1
連結軸
 41
0.9
 11
309.0
 21
67.0
 31
0.0
100
AcDbText
 73
     2
  0
TEXT
  5
5A2
330
504
100
AcDbEntity
  8
2-線
100
AcDbText
 10
357.0
 20
65.5
 30
0.0
 40
3.0
  1
ＳＫ４
 41
0.8
 11
357.0
 21
67.0
 31
0.0
100
AcDbText
 73
     2
  0
TEXT
  5
5A3
330
504
100
AcDbEntity
  8
2-線
100
AcDbText
 10
346.2
 20
65.5
 30
0.0
 40
3.0
  1
１
 72
     4
 11
347.5
 21
67.0
 31
0.0
100
AcDbText
  0
LINE
  5
5A4
330
504
100
AcDbEntity
  8
2-線
100
AcDbLine
 10
247.0
 20
76.0
 30
0.0
 11
410.0
 21
76.0
 31
0.0
  0
TEXT
  5
5A5
330
504
100
AcDbEntity
  8
2-線
100
AcDbText
 10
259.0
 20
71.5
 30
0.0
 40
3.0
  1
ＥＳＰ０５－１８
 41
0.9
 11
259.0
 21
73.0
 31
0.0
100
AcDbText
 73
     2
  0
TEXT
  5
5A6
330
504
100
AcDbEntity
  8
2-線
100
AcDbText
 10
250.6
 20
71.5
 30
0.0
 40
3.0
  1
６
 72
     4
 11
252.0
 21
73.0
 31
0.0
100
AcDbText
  0
TEXT
  5
5A7
330
504
100
AcDbEntity
  8
2-線
100
AcDbText
 10
309.0
 20
71.5
 30
0.0
 40
3.0
  1
平行ピン
 41
0.9
 11
309.0
 21
73.0
 31
0.0
100
AcDbText
 73
     2
  0
TEXT
  5
5A8
330
504
100
AcDbEntity
  8
2-線
100
AcDbText
 10
357.0
 20
71.5
 30
0.0
 40
3.0
  1
市販品
 41
0.8
 11
357.0
 21
73.0
 31
0.0
100
AcDbText
 73
     2
  0
TEXT
  5
5A9
330
504
100
AcDbEntity
  8
2-線
100
AcDbText
 10
346.2
 20
71.5
 30
0.0
 40
3.0
  1
１
 72
     4
 11
347.5
 21
73.0
 31
0.0
100
AcDbText
  0
ENDBLK
  5
5AB
330
504
100
AcDbEntity
  8
0
100
AcDbBlockEnd
  0
BLOCK
  5
1BFF
330
1BF1
100
AcDbEntity
  8
0
100
AcDbBlockBegin
  2
A$C313832AB
 70
     0
 10
0.0
 20
0.0
 30
0.0
  3
A$C313832AB
  1

  0
LINE
  5
1BF2
330
1BF1
100
AcDbEntity
  8
1-線
100
AcDbLine
 10
0.0
 20
0.0
 30
0.0
 11
20.0
 21
0.0
 31
0.0
  0
LINE
  5
1BF3
330
1BF1
100
AcDbEntity
  8
1-線
100
AcDbLine
 10
0.0
 20
5.0
 30
0.0
 11
20.0
 21
5.0
 31
0.0
  0
LINE
  5
1BF4
330
1BF1
100
AcDbEntity
  8
1-線
100
AcDbLine
 10
0.0
 20
10.0
 30
0.0
 11
20.0
 21
10.0
 31
0.0
  0
LINE
  5
1BF5
330
1BF1
100
AcDbEntity
  8
1-線
100
AcDbLine
 10
0.0
 20
30.0
 30
0.0
 11
20.0
 21
30.0
 31
0.0
  0
LINE
  5
1BF6
330
1BF1
100
AcDbEntity
  8
1-線
100
AcDbLine
 10
5.0
 20
15.0
 30
0.0
 11
15.0
 21
15.0
 31
0.0
  0
LINE
  5
1BF7
330
1BF1
100
AcDbEntity
  8
1-線
100
AcDbLine
 10
5.0
 20
25.0
 30
0.0
 11
15.0
 21
25.0
 31
0.0
  0
LINE
  5
1BF8
330
1BF1
100
AcDbEntity
  8
1-線
100
AcDbLine
 10
0.0
 20
30.0
 30
0.0
 11
0.0
 21
0.0
 31
0.0
  0
LINE
  5
1BF9
330
1BF1
100
AcDbEntity
  8
1-線
100
AcDbLine
 10
10.0
 20
25.0
 30
0.0
 11
10.0
 21
15.0
 31
0.0
  0
LINE
  5
1BFA
330
1BF1
100
AcDbEntity
  8
1-線
100
AcDbLine
 10
5.0
 20
30.0
 30
0.0
 11
5.0
 21
10.0
 31
0.0
  0
LINE
  5
1BFB
330
1BF1
100
AcDbEntity
  8
1-線
100
AcDbLine
 10
0.0
 20
20.0
 30
0.0
 11
5.0
 21
20.0
 31
0.0
  0
LINE
  5
1BFC
330
1BF1
100
AcDbEntity
  8
1-線
100
AcDbLine
 10
20.0
 20
30.0
 30
0.0
 11
20.0
 21
0.0
 31
0.0
  0
LINE
  5
1BFD
330
1BF1
100
AcDbEntity
  8
1-線
100
AcDbLine
 10
15.0
 20
30.0
 30
0.0
 11
15.0
 21
10.0
 31
0.0
  0
LINE
  5
1BFE
330
1BF1
100
AcDbEntity
  8
1-線
100
AcDbLine
 10
15.0
 20
20.0
 30
0.0
 11
20.0
 21
20.0
 31
0.0
  0
ENDBLK
  5
1C00
330
1BF1
100
AcDbEntity
  8
0
100
AcDbBlockEnd
  0
BLOCK
  5
1F6C
330
1F5E
100
AcDbEntity
  8
0
100
AcDbBlockBegin
  2
A$C1D0B0400
 70
     0
 10
0.0
 20
0.0
 30
0.0
  3
A$C1D0B0400
  1

  0
LINE
  5
1F5F
330
1F5E
100
AcDbEntity
  8
1-1点
100
AcDbLine
 10
0.0
 20
-15.0
 30
0.0
 11
0.0
 21
15.0
 31
0.0
  0
CIRCLE
  5
1F60
330
1F5E
100
AcDbEntity
  8
3-線
100
AcDbCircle
 10
0.0
 20
0.0
 30
0.0
 40
11.5
  0
CIRCLE
  5
1F61
330
1F5E
100
AcDbEntity
  8
3-線
100
AcDbCircle
 10
0.0
 20
0.0
 30
0.0
 40
6.0
  0
CIRCLE
  5
1F62
330
1F5E
100
AcDbEntity
  8
3-線
100
AcDbCircle
 10
0.0
 20
0.0
 30
0.0
 40
7.0
  0
LINE
  5
1F63
330
1F5E
100
AcDbEntity
  8
3-線
100
AcDbLine
 10
-4.499999999999943
 20
2.0
 30
0.0
 11
-5.656854249492369
 21
2.0
 31
0.0
  0
LINE
  5
1F64
330
1F5E
100
AcDbEntity
  8
3-線
100
AcDbLine
 10
-4.499999999999943
 20
-2.0
 30
0.0
 11
-5.656854249492369
 21
-2.0
 31
0.0
  0
LINE
  5
1F65
330
1F5E
100
AcDbEntity
  8
1-1点
100
AcDbLine
 10
-15.0
 20
0.0
 30
0.0
 11
15.0
 21
0.0
 31
0.0
  0
LINE
  5
1F66
330
1F5E
100
AcDbEntity
  8
3-線
100
AcDbLine
 10
5.454356057317851
 20
-2.5
 30
0.0
 11
-4.000000000000055
 21
-2.499999999999943
 31
0.0
  0
LINE
  5
1F67
330
1F5E
100
AcDbEntity
  8
3-線
100
AcDbLine
 10
5.454356057317851
 20
2.5
 30
0.0
 11
-3.999999999999828
 21
2.500000000000055
 31
0.0
  0
LINE
  5
1F68
330
1F5E
100
AcDbEntity
  8
3-線
100
AcDbLine
 10
-3.999999999999943
 20
2.499999999999943
 30
0.0
 11
-3.999999999999943
 21
-2.500000000000055
 31
0.0
  0
LINE
  5
1F69
330
1F5E
100
AcDbEntity
  8
3-線
100
AcDbLine
 10
-4.499999999999943
 20
2.000000000000055
 30
0.0
 11
-4.499999999999943
 21
-1.999999999999943
 31
0.0
  0
LINE
  5
1F6A
330
1F5E
100
AcDbEntity
  8
3-線
100
AcDbLine
 10
-3.999999999999943
 20
2.499999999999943
 30
0.0
 11
-4.499999999999943
 21
2.0
 31
0.0
  0
LINE
  5
1F6B
330
1F5E
100
AcDbEntity
  8
3-線
100
AcDbLine
 10
-4.499999999999943
 20
-2.0
 30
0.0
 11
-3.999999999999943
 21
-2.500000000000055
 31
0.0
  0
ENDBLK
  5
1F6D
330
1F5E
100
AcDbEntity
  8
0
100
AcDbBlockEnd
  0
BLOCK
  5
28F8
330
28EE
100
AcDbEntity
  8
0
100
AcDbBlockBegin
  2
*D6
 70
     1
 10
0.0
 20
0.0
 30
0.0
  3
*D6
  1

  0
LINE
  5
4F7D
330
28EE
100
AcDbEntity
  8
1-線
 62
     0
370
    -2
100
AcDbLine
 10
165.5
 20
218.0000000000001
 30
0.0
 11
139.0
 21
218.0000000000001
 31
0.0
  0
LINE
  5
4F7E
330
28EE
100
AcDbEntity
  8
1-線
 62
     0
370
    -2
100
AcDbLine
 10
165.5
 20
173.9999999999999
 30
0.0
 11
139.0
 21
173.9999999999999
 31
0.0
  0
LINE
  5
4F7F
330
28EE
100
AcDbEntity
  8
1-線
 62
     0
370
    -2
100
AcDbLine
 10
140.0
 20
215.5000000000001
 30
0.0
 11
140.0
 21
176.4999999999999
 31
0.0
  0
INSERT
  5
4F80
330
28EE
100
AcDbEntity
  8
1-線
 62
     0
370
    -2
100
AcDbBlockReference
  2
_Open30
 10
140.0
 20
218.0000000000001
 30
0.0
 41
2.5
 42
2.5
 43
2.5
 50
90.0
  0
INSERT
  5
4F81
330
28EE
100
AcDbEntity
  8
1-線
 62
     0
370
    -2
100
AcDbBlockReference
  2
_Open30
 10
140.0
 20
173.9999999999999
 30
0.0
 41
2.5
 42
2.5
 43
2.5
 50
270.0
  0
MTEXT
  5
4F82
330
28EE
100
AcDbEntity
  8
1-線
 62
     0
100
AcDbMText
 10
137.5
 20
196.0
 30
0.0
 40
3.0
 41
0.0
 71
     5
 72
     1
  1
%%c44
 11
0.0000000000000001
 21
1.0
 31
0.0
 73
     1
 44
1.0
  0
POINT
  5
4F83
330
28EE
100
AcDbEntity
  8
Defpoints
 62
     0
100
AcDbPoint
 10
165.5
 20
218.0000000000001
 30
0.0
  0
POINT
  5
4F84
330
28EE
100
AcDbEntity
  8
Defpoints
 62
     0
100
AcDbPoint
 10
165.5
 20
173.9999999999999
 30
0.0
  0
POINT
  5
4F85
330
28EE
100
AcDbEntity
  8
Defpoints
 62
     0
100
AcDbPoint
 10
140.0
 20
173.9999999999999
 30
0.0
  0
ENDBLK
  5
28F9
330
28EE
100
AcDbEntity
  8
0
100
AcDbBlockEnd
  0
BLOCK
  5
2977
330
296D
100
AcDbEntity
  8
0
100
AcDbBlockBegin
  2
*D7
 70
     1
 10
0.0
 20
0.0
 30
0.0
  3
*D7
  1

  0
LINE
  5
4FAA
330
296D
100
AcDbEntity
  8
1-線
 62
     0
370
    -2
100
AcDbLine
 10
266.5
 20
218.0000000000001
 30
0.0
 11
297.0688471154598
 21
218.0000000000001
 31
0.0
  0
LINE
  5
4FAB
330
296D
100
AcDbEntity
  8
1-線
 62
     0
370
    -2
100
AcDbLine
 10
266.5
 20
173.9999999999999
 30
0.0
 11
297.0688471154598
 21
173.9999999999999
 31
0.0
  0
LINE
  5
4FAC
330
296D
100
AcDbEntity
  8
1-線
 62
     0
370
    -2
100
AcDbLine
 10
296.0688471154599
 20
215.5000000000001
 30
0.0
 11
296.0688471154599
 21
176.4999999999999
 31
0.0
  0
INSERT
  5
4FAD
330
296D
100
AcDbEntity
  8
1-線
 62
     0
370
    -2
100
AcDbBlockReference
  2
_Open30
 10
296.0688471154599
 20
218.0000000000001
 30
0.0
 41
2.5
 42
2.5
 43
2.5
 50
90.0
  0
INSERT
  5
4FAE
330
296D
100
AcDbEntity
  8
1-線
 62
     0
370
    -2
100
AcDbBlockReference
  2
_Open30
 10
296.0688471154599
 20
173.9999999999999
 30
0.0
 41
2.5
 42
2.5
 43
2.5
 50
270.0
  0
MTEXT
  5
4FAF
330
296D
100
AcDbEntity
  8
1-線
 62
     0
100
AcDbMText
 10
293.5688471154598
 20
196.0
 30
0.0
 40
3.0
 41
0.0
 71
     5
 72
     1
  1
%%c44
 11
0.0000000000000001
 21
1.0
 31
0.0
 73
     1
 44
1.0
  0
POINT
  5
4FB0
330
296D
100
AcDbEntity
  8
Defpoints
 62
     0
100
AcDbPoint
 10
266.5
 20
218.0000000000001
 30
0.0
  0
POINT
  5
4FB1
330
296D
100
AcDbEntity
  8
Defpoints
 62
     0
100
AcDbPoint
 10
266.5
 20
173.9999999999999
 30
0.0
  0
POINT
  5
4FB2
330
296D
100
AcDbEntity
  8
Defpoints
 62
     0
100
AcDbPoint
 10
296.0688471154599
 20
173.9999999999999
 30
0.0
  0
ENDBLK
  5
2978
330
296D
100
AcDbEntity
  8
0
100
AcDbBlockEnd
  0
BLOCK
  5
29F1
330
29E7
100
AcDbEntity
  8
0
100
AcDbBlockBegin
  2
*D8
 70
     1
 10
0.0
 20
0.0
 30
0.0
  3
*D8
  1

  0
LINE
  5
4FBC
330
29E7
100
AcDbEntity
  8
1-線
 62
     0
370
    -2
100
AcDbLine
 10
163.5
 20
123.0
 30
0.0
 11
163.5
 21
115.0
 31
0.0
  0
LINE
  5
4FBD
330
29E7
100
AcDbEntity
  8
1-線
 62
     0
370
    -2
100
AcDbLine
 10
268.5
 20
123.1238644429595
 30
0.0
 11
268.5
 21
115.0
 31
0.0
  0
LINE
  5
4FBE
330
29E7
100
AcDbEntity
  8
1-線
 62
     0
370
    -2
100
AcDbLine
 10
166.0
 20
116.0
 30
0.0
 11
266.0
 21
116.0
 31
0.0
  0
INSERT
  5
4FBF
330
29E7
100
AcDbEntity
  8
1-線
 62
     0
370
    -2
100
AcDbBlockReference
  2
_Open30
 10
163.5
 20
116.0
 30
0.0
 41
2.5
 42
2.5
 43
2.5
 50
180.0
  0
INSERT
  5
4FC0
330
29E7
100
AcDbEntity
  8
1-線
 62
     0
370
    -2
100
AcDbBlockReference
  2
_Open30
 10
268.5
 20
116.0
 30
0.0
 41
2.5
 42
2.5
 43
2.5
  0
MTEXT
  5
4FC1
330
29E7
100
AcDbEntity
  8
1-線
 62
     0
100
AcDbMText
 10
216.0
 20
118.5
 30
0.0
 40
3.0
 41
0.0
 71
     5
 72
     1
  1
105
 73
     1
 44
1.0
  0
POINT
  5
4FC2
330
29E7
100
AcDbEntity
  8
Defpoints
 62
     0
100
AcDbPoint
 10
163.5
 20
123.0
 30
0.0
  0
POINT
  5
4FC3
330
29E7
100
AcDbEntity
  8
Defpoints
 62
     0
100
AcDbPoint
 10
268.5
 20
123.1238644429595
 30
0.0
  0
POINT
  5
4FC4
330
29E7
100
AcDbEntity
  8
Defpoints
 62
     0
100
AcDbPoint
 10
268.5
 20
116.0
 30
0.0
  0
ENDBLK
  5
29F2
330
29E7
100
AcDbEntity
  8
0
100
AcDbBlockEnd
  0
BLOCK
  5
29FD
330
29F3
100
AcDbEntity
  8
0
100
AcDbBlockBegin
  2
*D9
 70
     1
 10
0.0
 20
0.0
 30
0.0
  3
*D9
  1

  0
LINE
  5
4F8F
330
29F3
100
AcDbEntity
  8
1-線
 62
     0
370
    -2
100
AcDbLine
 10
216.0000000000007
 20
152.0272419517466
 30
0.0
 11
216.0000000000007
 21
123.1238644429595
 31
0.0
  0
LINE
  5
4F90
330
29F3
100
AcDbEntity
  8
1-線
 62
     0
370
    -2
100
AcDbLine
 10
268.5
 20
131.0205142116764
 30
0.0
 11
268.5
 21
123.1238644429595
 31
0.0
  0
LINE
  5
4F91
330
29F3
100
AcDbEntity
  8
1-線
 62
     0
370
    -2
100
AcDbLine
 10
218.5000000000008
 20
124.1238644429595
 30
0.0
 11
266.0
 21
124.1238644429595
 31
0.0
  0
INSERT
  5
4F92
330
29F3
100
AcDbEntity
  8
1-線
 62
     0
370
    -2
100
AcDbBlockReference
  2
_Open30
 10
216.0000000000007
 20
124.1238644429595
 30
0.0
 41
2.5
 42
2.5
 43
2.5
 50
180.0
  0
INSERT
  5
4F93
330
29F3
100
AcDbEntity
  8
1-線
 62
     0
370
    -2
100
AcDbBlockReference
  2
_Open30
 10
268.5
 20
124.1238644429595
 30
0.0
 41
2.5
 42
2.5
 43
2.5
  0
MTEXT
  5
4F94
330
29F3
100
AcDbEntity
  8
1-線
 62
     0
100
AcDbMText
 10
242.2500000000004
 20
126.6238644429595
 30
0.0
 40
3.0
 41
0.0
 71
     5
 72
     1
  1
52.5
 73
     1
 44
1.0
  0
POINT
  5
4F95
330
29F3
100
AcDbEntity
  8
Defpoints
 62
     0
100
AcDbPoint
 10
216.0000000000007
 20
152.0272419517466
 30
0.0
  0
POINT
  5
4F96
330
29F3
100
AcDbEntity
  8
Defpoints
 62
     0
100
AcDbPoint
 10
268.5
 20
131.0205142116764
 30
0.0
  0
POINT
  5
4F97
330
29F3
100
AcDbEntity
  8
Defpoints
 62
     0
100
AcDbPoint
 10
268.5
 20
124.1238644429595
 30
0.0
  0
ENDBLK
  5
29FE
330
29F3
100
AcDbEntity
  8
0
100
AcDbBlockEnd
  0
BLOCK
  5
2A09
330
29FF
100
AcDbEntity
  8
0
100
AcDbBlockBegin
  2
*D10
 70
     1
 10
0.0
 20
0.0
 30
0.0
  3
*D10
  1

  0
LINE
  5
4F98
330
29FF
100
AcDbEntity
  8
1-線
 62
     0
370
    -2
100
AcDbLine
 10
268.5
 20
139.0
 30
0.0
 11
268.5
 21
131.0205142116764
 31
0.0
  0
LINE
  5
4F99
330
29FF
100
AcDbEntity
  8
1-線
 62
     0
370
    -2
100
AcDbLine
 10
238.4999999999999
 20
185.0
 30
0.0
 11
238.4999999999999
 21
131.0205142116764
 31
0.0
  0
LINE
  5
4F9A
330
29FF
100
AcDbEntity
  8
1-線
 62
     0
370
    -2
100
AcDbLine
 10
266.0
 20
132.0205142116764
 30
0.0
 11
240.9999999999999
 21
132.0205142116764
 31
0.0
  0
INSERT
  5
4F9B
330
29FF
100
AcDbEntity
  8
1-線
 62
     0
370
    -2
100
AcDbBlockReference
  2
_Open30
 10
268.5
 20
132.0205142116764
 30
0.0
 41
2.5
 42
2.5
 43
2.5
  0
INSERT
  5
4F9C
330
29FF
100
AcDbEntity
  8
1-線
 62
     0
370
    -2
100
AcDbBlockReference
  2
_Open30
 10
238.4999999999999
 20
132.0205142116764
 30
0.0
 41
2.5
 42
2.5
 43
2.5
 50
180.0
  0
MTEXT
  5
4F9D
330
29FF
100
AcDbEntity
  8
1-線
 62
     0
100
AcDbMText
 10
253.5
 20
134.5205142116764
 30
0.0
 40
3.0
 41
0.0
 71
     5
 72
     1
  1
30
 73
     1
 44
1.0
  0
POINT
  5
4F9E
330
29FF
100
AcDbEntity
  8
Defpoints
 62
     0
100
AcDbPoint
 10
268.5
 20
139.0
 30
0.0
  0
POINT
  5
4F9F
330
29FF
100
AcDbEntity
  8
Defpoints
 62
     0
100
AcDbPoint
 10
238.4999999999999
 20
185.0
 30
0.0
  0
POINT
  5
4FA0
330
29FF
100
AcDbEntity
  8
Defpoints
 62
     0
100
AcDbPoint
 10
238.4999999999999
 20
132.0205142116764
 30
0.0
  0
ENDBLK
  5
2A0A
330
29FF
100
AcDbEntity
  8
0
100
AcDbBlockEnd
  0
BLOCK
  5
2A88
330
2A7E
100
AcDbEntity
  8
0
100
AcDbBlockBegin
  2
*D11
 70
     1
 10
0.0
 20
0.0
 30
0.0
  3
*D11
  1

  0
LINE
  5
4F6B
330
2A7E
100
AcDbEntity
  8
1-線
 62
     0
370
    -2
100
AcDbLine
 10
193.4999999999994
 20
173.9999999999999
 30
0.0
 11
193.4999999999994
 21
131.0
 31
0.0
  0
LINE
  5
4F6C
330
2A7E
100
AcDbEntity
  8
1-線
 62
     0
370
    -2
100
AcDbLine
 10
163.5
 20
139.0
 30
0.0
 11
163.5
 21
131.0
 31
0.0
  0
LINE
  5
4F6D
330
2A7E
100
AcDbEntity
  8
1-線
 62
     0
370
    -2
100
AcDbLine
 10
190.9999999999994
 20
132.0
 30
0.0
 11
166.0
 21
132.0
 31
0.0
  0
INSERT
  5
4F6E
330
2A7E
100
AcDbEntity
  8
1-線
 62
     0
370
    -2
100
AcDbBlockReference
  2
_Open30
 10
193.4999999999994
 20
132.0
 30
0.0
 41
2.5
 42
2.5
 43
2.5
  0
INSERT
  5
4F6F
330
2A7E
100
AcDbEntity
  8
1-線
 62
     0
370
    -2
100
AcDbBlockReference
  2
_Open30
 10
163.5
 20
132.0
 30
0.0
 41
2.5
 42
2.5
 43
2.5
 50
180.0
  0
MTEXT
  5
4F70
330
2A7E
100
AcDbEntity
  8
1-線
 62
     0
100
AcDbMText
 10
178.4999999999997
 20
134.5
 30
0.0
 40
3.0
 41
0.0
 71
     5
 72
     1
  1
30
 73
     1
 44
1.0
  0
POINT
  5
4F71
330
2A7E
100
AcDbEntity
  8
Defpoints
 62
     0
100
AcDbPoint
 10
193.4999999999994
 20
173.9999999999999
 30
0.0
  0
POINT
  5
4F72
330
2A7E
100
AcDbEntity
  8
Defpoints
 62
     0
100
AcDbPoint
 10
163.5
 20
139.0
 30
0.0
  0
POINT
  5
4F73
330
2A7E
100
AcDbEntity
  8
Defpoints
 62
     0
100
AcDbPoint
 10
163.5
 20
132.0
 30
0.0
  0
ENDBLK
  5
2A89
330
2A7E
100
AcDbEntity
  8
0
100
AcDbBlockEnd
  0
BLOCK
  5
2A94
330
2A8A
100
AcDbEntity
  8
0
100
AcDbBlockBegin
  2
*D12
 70
     1
 10
0.0
 20
0.0
 30
0.0
  3
*D12
  1

  0
LINE
  5
5016
330
2A8A
100
AcDbEntity
  8
1-線
 62
     0
370
    -2
100
AcDbLine
 10
216.0
 20
165.0
 30
0.0
 11
216.0
 21
123.0
 31
0.0
  0
LINE
  5
5017
330
2A8A
100
AcDbEntity
  8
1-線
 62
     0
370
    -2
100
AcDbLine
 10
163.5
 20
131.0
 30
0.0
 11
163.5
 21
123.0
 31
0.0
  0
LINE
  5
5018
330
2A8A
100
AcDbEntity
  8
1-線
 62
     0
370
    -2
100
AcDbLine
 10
213.5
 20
124.0
 30
0.0
 11
166.0
 21
124.0
 31
0.0
  0
INSERT
  5
5019
330
2A8A
100
AcDbEntity
  8
1-線
 62
     0
370
    -2
100
AcDbBlockReference
  2
_Open30
 10
216.0
 20
124.0
 30
0.0
 41
2.5
 42
2.5
 43
2.5
  0
INSERT
  5
501A
330
2A8A
100
AcDbEntity
  8
1-線
 62
     0
370
    -2
100
AcDbBlockReference
  2
_Open30
 10
163.5
 20
124.0
 30
0.0
 41
2.5
 42
2.5
 43
2.5
 50
180.0
  0
MTEXT
  5
501B
330
2A8A
100
AcDbEntity
  8
1-線
 62
     0
100
AcDbMText
 10
189.75
 20
126.5
 30
0.0
 40
3.0
 41
0.0
 71
     5
 72
     1
  1
52.5
 73
     1
 44
1.0
  0
POINT
  5
501C
330
2A8A
100
AcDbEntity
  8
Defpoints
 62
     0
100
AcDbPoint
 10
216.0
 20
165.0
 30
0.0
  0
POINT
  5
501D
330
2A8A
100
AcDbEntity
  8
Defpoints
 62
     0
100
AcDbPoint
 10
163.5
 20
131.0
 30
0.0
  0
POINT
  5
501E
330
2A8A
100
AcDbEntity
  8
Defpoints
 62
     0
100
AcDbPoint
 10
163.5
 20
124.0
 30
0.0
  0
ENDBLK
  5
2A95
330
2A8A
100
AcDbEntity
  8
0
100
AcDbBlockEnd
  0
BLOCK
  5
461A
330
4610
100
AcDbEntity
  8
0
100
AcDbBlockBegin
  2
*D13
 70
     1
 10
0.0
 20
0.0
 30
0.0
  3
*D13
  1

  0
LINE
  5
4FA1
330
4610
100
AcDbEntity
  8
1-線
 62
     0
370
    -2
100
AcDbLine
 10
268.5
 20
175.9999999999999
 30
0.0
 11
268.5
 21
139.0
 31
0.0
  0
LINE
  5
4FA2
330
4610
100
AcDbEntity
  8
1-線
 62
     0
370
    -2
100
AcDbLine
 10
253.5
 20
165.0
 30
0.0
 11
253.5
 21
139.0
 31
0.0
  0
LINE
  5
4FA3
330
4610
100
AcDbEntity
  8
1-線
 62
     0
370
    -2
100
AcDbLine
 10
266.0
 20
140.0
 30
0.0
 11
256.0
 21
140.0
 31
0.0
  0
INSERT
  5
4FA4
330
4610
100
AcDbEntity
  8
1-線
 62
     0
370
    -2
100
AcDbBlockReference
  2
_Open30
 10
268.5
 20
140.0
 30
0.0
 41
2.5
 42
2.5
 43
2.5
  0
INSERT
  5
4FA5
330
4610
100
AcDbEntity
  8
1-線
 62
     0
370
    -2
100
AcDbBlockReference
  2
_Open30
 10
253.5
 20
140.0
 30
0.0
 41
2.5
 42
2.5
 43
2.5
 50
180.0
  0
MTEXT
  5
4FA6
330
4610
100
AcDbEntity
  8
1-線
 62
     0
100
AcDbMText
 10
261.0
 20
142.5
 30
0.0
 40
3.0
 41
0.0
 71
     5
 72
     1
  1
15
 73
     1
 44
1.0
  0
POINT
  5
4FA7
330
4610
100
AcDbEntity
  8
Defpoints
 62
     0
100
AcDbPoint
 10
268.5
 20
175.9999999999999
 30
0.0
  0
POINT
  5
4FA8
330
4610
100
AcDbEntity
  8
Defpoints
 62
     0
100
AcDbPoint
 10
253.5
 20
165.0
 30
0.0
  0
POINT
  5
4FA9
330
4610
100
AcDbEntity
  8
Defpoints
 62
     0
100
AcDbPoint
 10
253.5
 20
140.0
 30
0.0
  0
ENDBLK
  5
461B
330
4610
100
AcDbEntity
  8
0
100
AcDbBlockEnd
  0
BLOCK
  5
4D7B
330
4D71
100
AcDbEntity
  8
0
100
AcDbBlockBegin
  2
*D14
 70
     1
 10
0.0
 20
0.0
 30
0.0
  3
*D14
  1

  0
LINE
  5
4F86
330
4D71
100
AcDbEntity
  8
1-線
 62
     0
370
    -2
100
AcDbLine
 10
165.5
 20
208.5
 30
0.0
 11
147.0
 21
208.5
 31
0.0
  0
LINE
  5
4F87
330
4D71
100
AcDbEntity
  8
1-線
 62
     0
370
    -2
100
AcDbLine
 10
165.5
 20
183.5
 30
0.0
 11
147.0
 21
183.5
 31
0.0
  0
LINE
  5
4F88
330
4D71
100
AcDbEntity
  8
1-線
 62
     0
370
    -2
100
AcDbLine
 10
148.0
 20
206.0
 30
0.0
 11
148.0
 21
186.0
 31
0.0
  0
INSERT
  5
4F89
330
4D71
100
AcDbEntity
  8
1-線
 62
     0
370
    -2
100
AcDbBlockReference
  2
_Open30
 10
148.0
 20
208.5
 30
0.0
 41
2.5
 42
2.5
 43
2.5
 50
90.0
  0
INSERT
  5
4F8A
330
4D71
100
AcDbEntity
  8
1-線
 62
     0
370
    -2
100
AcDbBlockReference
  2
_Open30
 10
148.0
 20
183.5
 30
0.0
 41
2.5
 42
2.5
 43
2.5
 50
270.0
  0
MTEXT
  5
4F8B
330
4D71
100
AcDbEntity
  8
1-線
 62
     0
100
AcDbMText
 10
145.5
 20
196.0
 30
0.0
 40
3.0
 41
0.0
 71
     5
 72
     1
  1
\A1;%%c25{\H0.7x;\SH7^ ;}
 11
0.0000000000000001
 21
1.0
 31
0.0
 73
     1
 44
1.0
  0
POINT
  5
4F8C
330
4D71
100
AcDbEntity
  8
Defpoints
 62
     0
100
AcDbPoint
 10
165.5
 20
208.5
 30
0.0
  0
POINT
  5
4F8D
330
4D71
100
AcDbEntity
  8
Defpoints
 62
     0
100
AcDbPoint
 10
165.5
 20
183.5
 30
0.0
  0
POINT
  5
4F8E
330
4D71
100
AcDbEntity
  8
Defpoints
 62
     0
100
AcDbPoint
 10
148.0
 20
183.5
 30
0.0
  0
ENDBLK
  5
4D7C
330
4D71
100
AcDbEntity
  8
0
100
AcDbBlockEnd
  0
BLOCK
  5
4D88
330
4D7D
100
AcDbEntity
  8
0
100
AcDbBlockBegin
  2
*D15
 70
     1
 10
0.0
 20
0.0
 30
0.0
  3
*D15
  1

  0
LINE
  5
503D
330
4D7D
100
AcDbEntity
  8
1-線
 62
     0
370
    -2
100
AcDbLine
 10
183.5
 20
173.9999999999999
 30
0.0
 11
183.5
 21
147.0
 31
0.0
  0
LINE
  5
503E
330
4D7D
100
AcDbEntity
  8
1-線
 62
     0
370
    -2
100
AcDbLine
 10
173.5
 20
173.9999999999999
 30
0.0
 11
173.5
 21
147.0
 31
0.0
  0
LINE
  5
503F
330
4D7D
100
AcDbEntity
  8
1-線
 62
     0
370
    -2
100
AcDbLine
 10
181.0
 20
148.0
 30
0.0
 11
176.0
 21
148.0
 31
0.0
  0
LINE
  5
5040
330
4D7D
100
AcDbEntity
  8
1-線
 62
     0
370
    -2
100
AcDbLine
 10
173.5
 20
148.0
 30
0.0
 11
155.75
 21
148.0
 31
0.0
  0
INSERT
  5
5041
330
4D7D
100
AcDbEntity
  8
1-線
 62
     0
370
    -2
100
AcDbBlockReference
  2
_Open30
 10
183.5
 20
148.0
 30
0.0
 41
2.5
 42
2.5
 43
2.5
  0
INSERT
  5
5042
330
4D7D
100
AcDbEntity
  8
1-線
 62
     0
370
    -2
100
AcDbBlockReference
  2
_Open30
 10
173.5
 20
148.0
 30
0.0
 41
2.5
 42
2.5
 43
2.5
 50
180.0
  0
MTEXT
  5
5043
330
4D7D
100
AcDbEntity
  8
1-線
 62
     0
100
AcDbMText
 10
162.25
 20
151.45
 30
0.0
 40
3.0
 41
0.0
 71
     5
 72
     1
  1
\A1;%%c10{\H0.7x;\SH8^ m6;}
 73
     1
 44
1.0
  0
POINT
  5
5044
330
4D7D
100
AcDbEntity
  8
Defpoints
 62
     0
100
AcDbPoint
 10
183.5
 20
173.9999999999999
 30
0.0
  0
POINT
  5
5045
330
4D7D
100
AcDbEntity
  8
Defpoints
 62
     0
100
AcDbPoint
 10
173.5
 20
173.9999999999999
 30
0.0
  0
POINT
  5
5046
330
4D7D
100
AcDbEntity
  8
Defpoints
 62
     0
100
AcDbPoint
 10
173.5
 20
148.0
 30
0.0
  0
ENDBLK
  5
4D89
330
4D7D
100
AcDbEntity
  8
0
100
AcDbBlockEnd
  0
BLOCK
  5
4D94
330
4D8A
100
AcDbEntity
  8
0
100
AcDbBlockBegin
  2
*D16
 70
     1
 10
0.0
 20
0.0
 30
0.0
  3
*D16
  1

  0
LINE
  5
4FB3
330
4D8A
100
AcDbEntity
  8
1-線
 62
     0
370
    -2
100
AcDbLine
 10
266.5
 20
208.5
 30
0.0
 11
289.0
 21
208.5
 31
0.0
  0
LINE
  5
4FB4
330
4D8A
100
AcDbEntity
  8
1-線
 62
     0
370
    -2
100
AcDbLine
 10
266.5
 20
183.4999999999999
 30
0.0
 11
289.0
 21
183.4999999999999
 31
0.0
  0
LINE
  5
4FB5
330
4D8A
100
AcDbEntity
  8
1-線
 62
     0
370
    -2
100
AcDbLine
 10
288.0000000000001
 20
206.0
 30
0.0
 11
288.0000000000001
 21
185.9999999999999
 31
0.0
  0
INSERT
  5
4FB6
330
4D8A
100
AcDbEntity
  8
1-線
 62
     0
370
    -2
100
AcDbBlockReference
  2
_Open30
 10
288.0000000000001
 20
208.5
 30
0.0
 41
2.5
 42
2.5
 43
2.5
 50
90.0
  0
INSERT
  5
4FB7
330
4D8A
100
AcDbEntity
  8
1-線
 62
     0
370
    -2
100
AcDbBlockReference
  2
_Open30
 10
288.0000000000001
 20
183.4999999999999
 30
0.0
 41
2.5
 42
2.5
 43
2.5
 50
270.0
  0
MTEXT
  5
4FB8
330
4D8A
100
AcDbEntity
  8
1-線
 62
     0
100
AcDbMText
 10
285.5
 20
196.0
 30
0.0
 40
3.0
 41
0.0
 71
     5
 72
     1
  1
\A1;%%c25{\H0.7x;\SH7^ ;}
 11
0.0000000000000001
 21
1.0
 31
0.0
 73
     1
 44
1.0
  0
POINT
  5
4FB9
330
4D8A
100
AcDbEntity
  8
Defpoints
 62
     0
100
AcDbPoint
 10
266.5
 20
208.5
 30
0.0
  0
POINT
  5
4FBA
330
4D8A
100
AcDbEntity
  8
Defpoints
 62
     0
100
AcDbPoint
 10
266.5
 20
183.4999999999999
 30
0.0
  0
POINT
  5
4FBB
330
4D8A
100
AcDbEntity
  8
Defpoints
 62
     0
100
AcDbPoint
 10
288.0000000000001
 20
183.4999999999999
 30
0.0
  0
ENDBLK
  5
4D95
330
4D8A
100
AcDbEntity
  8
0
100
AcDbBlockEnd
  0
BLOCK
  5
4E1D
330
4E13
100
AcDbEntity
  8
0
100
AcDbBlockBegin
  2
*D17
 70
     1
 10
0.0
 20
0.0
 30
0.0
  3
*D17
  1

  0
LINE
  5
500D
330
4E13
100
AcDbEntity
  8
1-線
 62
     0
370
    -2
100
AcDbLine
 10
163.5
 20
145.6796425346817
 30
0.0
 11
163.5
 21
139.0
 31
0.0
  0
LINE
  5
500E
330
4E13
100
AcDbEntity
  8
1-線
 62
     0
370
    -2
100
AcDbLine
 10
178.5
 20
146.6858823537467
 30
0.0
 11
178.5
 21
139.0
 31
0.0
  0
LINE
  5
500F
330
4E13
100
AcDbEntity
  8
1-線
 62
     0
370
    -2
100
AcDbLine
 10
166.0
 20
140.0
 30
0.0
 11
176.0
 21
140.0
 31
0.0
  0
INSERT
  5
5010
330
4E13
100
AcDbEntity
  8
1-線
 62
     0
370
    -2
100
AcDbBlockReference
  2
_Open30
 10
163.5
 20
140.0
 30
0.0
 41
2.5
 42
2.5
 43
2.5
 50
180.0
  0
INSERT
  5
5011
330
4E13
100
AcDbEntity
  8
1-線
 62
     0
370
    -2
100
AcDbBlockReference
  2
_Open30
 10
178.5
 20
140.0
 30
0.0
 41
2.5
 42
2.5
 43
2.5
  0
MTEXT
  5
5012
330
4E13
100
AcDbEntity
  8
1-線
 62
     0
100
AcDbMText
 10
171.0
 20
142.5
 30
0.0
 40
3.0
 41
0.0
 71
     5
 72
     1
  1
15
 73
     1
 44
1.0
  0
POINT
  5
5013
330
4E13
100
AcDbEntity
  8
Defpoints
 62
     0
100
AcDbPoint
 10
163.5
 20
145.6796425346817
 30
0.0
  0
POINT
  5
5014
330
4E13
100
AcDbEntity
  8
Defpoints
 62
     0
100
AcDbPoint
 10
178.5
 20
146.6858823537467
 30
0.0
  0
POINT
  5
5015
330
4E13
100
AcDbEntity
  8
Defpoints
 62
     0
100
AcDbPoint
 10
178.5
 20
140.0
 30
0.0
  0
ENDBLK
  5
4E1E
330
4E13
100
AcDbEntity
  8
0
100
AcDbBlockEnd
  0
BLOCK
  5
5069
330
505F
100
AcDbEntity
  8
0
100
AcDbBlockBegin
  2
*D18
 70
     1
 10
0.0
 20
0.0
 30
0.0
  3
*D18
  1

  0
LINE
  5
5060
330
505F
100
AcDbEntity
  8
1-線
 62
     0
370
    -2
100
AcDbLine
 10
320.0
 20
269.9999999999999
 30
0.0
 11
320.0
 21
288.341985700184
 31
0.0
  0
LINE
  5
5061
330
505F
100
AcDbEntity
  8
1-線
 62
     0
370
    -2
100
AcDbLine
 10
216.0
 20
272.760268823371
 30
0.0
 11
216.0
 21
288.341985700184
 31
0.0
  0
LINE
  5
5062
330
505F
100
AcDbEntity
  8
1-線
 62
     0
370
    -2
100
AcDbLine
 10
317.5
 20
287.3419857001838
 30
0.0
 11
218.5
 21
287.3419857001838
 31
0.0
  0
INSERT
  5
5063
330
505F
100
AcDbEntity
  8
1-線
 62
     0
370
    -2
100
AcDbBlockReference
  2
_Open30
 10
320.0
 20
287.3419857001838
 30
0.0
 41
2.5
 42
2.5
 43
2.5
  0
INSERT
  5
5064
330
505F
100
AcDbEntity
  8
1-線
 62
     0
370
    -2
100
AcDbBlockReference
  2
_Open30
 10
216.0
 20
287.3419857001838
 30
0.0
 41
2.5
 42
2.5
 43
2.5
 50
180.0
  0
MTEXT
  5
5065
330
505F
100
AcDbEntity
  8
1-線
 62
     0
100
AcDbMText
 10
268.0
 20
289.841985700184
 30
0.0
 40
3.0
 41
0.0
 71
     5
 72
     1
  1
104
 73
     1
 44
1.0
  0
POINT
  5
5066
330
505F
100
AcDbEntity
  8
Defpoints
 62
     0
100
AcDbPoint
 10
320.0
 20
269.9999999999999
 30
0.0
  0
POINT
  5
5067
330
505F
100
AcDbEntity
  8
Defpoints
 62
     0
100
AcDbPoint
 10
216.0
 20
272.760268823371
 30
0.0
  0
POINT
  5
5068
330
505F
100
AcDbEntity
  8
Defpoints
 62
     0
100
AcDbPoint
 10
216.0
 20
287.3419857001838
 30
0.0
  0
ENDBLK
  5
506A
330
505F
100
AcDbEntity
  8
0
100
AcDbBlockEnd
  0
BLOCK
  5
5076
330
506C
100
AcDbEntity
  8
0
100
AcDbBlockBegin
  2
*D19
 70
     1
 10
0.0
 20
0.0
 30
0.0
  3
*D19
  1

  0
LINE
  5
506D
330
506C
100
AcDbEntity
  8
1-線
 62
     0
370
    -2
100
AcDbLine
 10
112.0
 20
269.9999999999972
 30
0.0
 11
112.0
 21
288.341985700184
 31
0.0
  0
LINE
  5
506E
330
506C
100
AcDbEntity
  8
1-線
 62
     0
370
    -2
100
AcDbLine
 10
216.0
 20
272.760268823371
 30
0.0
 11
216.0
 21
288.341985700184
 31
0.0
  0
LINE
  5
506F
330
506C
100
AcDbEntity
  8
1-線
 62
     0
370
    -2
100
AcDbLine
 10
114.5
 20
287.3419857001838
 30
0.0
 11
213.5
 21
287.3419857001838
 31
0.0
  0
INSERT
  5
5070
330
506C
100
AcDbEntity
  8
1-線
 62
     0
370
    -2
100
AcDbBlockReference
  2
_Open30
 10
112.0
 20
287.3419857001838
 30
0.0
 41
2.5
 42
2.5
 43
2.5
 50
180.0
  0
INSERT
  5
5071
330
506C
100
AcDbEntity
  8
1-線
 62
     0
370
    -2
100
AcDbBlockReference
  2
_Open30
 10
216.0
 20
287.3419857001838
 30
0.0
 41
2.5
 42
2.5
 43
2.5
  0
MTEXT
  5
5072
330
506C
100
AcDbEntity
  8
1-線
 62
     0
100
AcDbMText
 10
164.0
 20
289.841985700184
 30
0.0
 40
3.0
 41
0.0
 71
     5
 72
     1
  1
104
 73
     1
 44
1.0
  0
POINT
  5
5073
330
506C
100
AcDbEntity
  8
Defpoints
 62
     0
100
AcDbPoint
 10
112.0
 20
269.9999999999972
 30
0.0
  0
POINT
  5
5074
330
506C
100
AcDbEntity
  8
Defpoints
 62
     0
100
AcDbPoint
 10
216.0
 20
272.760268823371
 30
0.0
  0
POINT
  5
5075
330
506C
100
AcDbEntity
  8
Defpoints
 62
     0
100
AcDbPoint
 10
216.0
 20
287.3419857001838
 30
0.0
  0
ENDBLK
  5
5077
330
506C
100
AcDbEntity
  8
0
100
AcDbBlockEnd
  0
ENDSEC
  0
SECTION
  2
ENTITIES
  0
MTEXT
  5
E68
330
1F
100
AcDbEntity
  8
1-線
100
AcDbMText
 10
312.9841260005437
 20
164.7217985525683
 30
0.0
 40
3.0
 41
15.0
 71
     7
 72
     1
  1

 73
     1
 44
1.0
  0
CIRCLE
  5
4A2D
330
1F
100
AcDbEntity
  8
3-線
100
AcDbCircle
 10
320.0
 20
239.9999999999999
 30
0.0
 40
14.5
  0
CIRCLE
  5
4A2E
330
1F
100
AcDbEntity
  8
3-線
100
AcDbCircle
 10
320.0
 20
239.9999999999999
 30
0.0
 40
12.5
  0
CIRCLE
  5
4A2F
330
1F
100
AcDbEntity
  8
3-線
100
AcDbCircle
 10
320.0
 20
239.9999999999999
 30
0.0
 40
22.0
  0
LINE
  5
4A30
330
1F
100
AcDbEntity
  8
3-線
100
AcDbLine
 10
308.5435607626104
 20
244.9999999999999
 30
0.0
 11
327.0
 21
244.9999999999999
 31
0.0
  0
LINE
  5
4A31
330
1F
100
AcDbEntity
  8
3-線
100
AcDbLine
 10
308.5435607626104
 20
234.9999999999999
 30
0.0
 11
327.0
 21
234.9999999999999
 31
0.0
  0
LINE
  5
4A32
330
1F
100
AcDbEntity
  8
3-線
100
AcDbLine
 10
328.0000000000001
 20
243.9999999999999
 30
0.0
 11
327.0
 21
244.9999999999999
 31
0.0
  0
LINE
  5
4A33
330
1F
100
AcDbEntity
  8
3-線
100
AcDbLine
 10
328.0
 20
235.9999999999999
 30
0.0
 11
327.0
 21
234.9999999999999
 31
0.0
  0
LINE
  5
4A34
330
1F
100
AcDbEntity
  8
3-線
100
AcDbLine
 10
327.0
 20
234.9999999999999
 30
0.0
 11
327.0
 21
244.9999999999999
 31
0.0
  0
LINE
  5
4A35
330
1F
100
AcDbEntity
  8
3-線
100
AcDbLine
 10
328.0
 20
235.9999999999999
 30
0.0
 11
328.0000000000001
 21
243.9999999999999
 31
0.0
  0
LINE
  5
4A36
330
1F
100
AcDbEntity
  8
3-線
100
AcDbLine
 10
328.0
 20
235.9999999999999
 30
0.0
 11
331.842719282327
 21
235.9999999999999
 31
0.0
  0
LINE
  5
4A37
330
1F
100
AcDbEntity
  8
3-線
100
AcDbLine
 10
328.0000000000001
 20
243.9999999999999
 30
0.0
 11
331.842719282327
 21
243.9999999999999
 31
0.0
  0
LINE
  5
4A57
330
1F
100
AcDbEntity
  8
3-線
100
AcDbLine
 10
108.0
 20
231.9999999999971
 30
0.0
 11
108.0
 21
228.1572807176702
 31
0.0
  0
LINE
  5
4A58
330
1F
100
AcDbEntity
  8
3-線
100
AcDbLine
 10
116.0
 20
231.9999999999972
 30
0.0
 11
116.0
 21
228.1572807176702
 31
0.0
  0
CIRCLE
  5
4A59
330
1F
100
AcDbEntity
  8
3-線
100
AcDbCircle
 10
112.0
 20
239.9999999999973
 30
0.0
 40
14.5
  0
CIRCLE
  5
4A5A
330
1F
100
AcDbEntity
  8
3-線
100
AcDbCircle
 10
112.0
 20
239.9999999999973
 30
0.0
 40
12.5
  0
CIRCLE
  5
4A5B
330
1F
100
AcDbEntity
  8
3-線
100
AcDbCircle
 10
112.0
 20
239.9999999999973
 30
0.0
 40
22.0
  0
LINE
  5
4A5C
330
1F
100
AcDbEntity
  8
3-線
100
AcDbLine
 10
117.0
 20
232.9999999999972
 30
0.0
 11
107.0
 21
232.9999999999972
 31
0.0
  0
LINE
  5
4A5D
330
1F
100
AcDbEntity
  8
3-線
100
AcDbLine
 10
116.0
 20
231.9999999999972
 30
0.0
 11
108.0
 21
231.9999999999971
 31
0.0
  0
LINE
  5
4A5E
330
1F
100
AcDbEntity
  8
3-線
100
AcDbLine
 10
107.0
 20
251.4564392373868
 30
0.0
 11
107.0
 21
232.9999999999972
 31
0.0
  0
LINE
  5
4A5F
330
1F
100
AcDbEntity
  8
3-線
100
AcDbLine
 10
108.0
 20
231.9999999999971
 30
0.0
 11
107.0
 21
232.9999999999972
 31
0.0
  0
LINE
  5
4A60
330
1F
100
AcDbEntity
  8
3-線
100
AcDbLine
 10
117.0
 20
251.4564392373868
 30
0.0
 11
117.0
 21
232.9999999999972
 31
0.0
  0
LINE
  5
4A61
330
1F
100
AcDbEntity
  8
3-線
100
AcDbLine
 10
116.0
 20
231.9999999999972
 30
0.0
 11
117.0
 21
232.9999999999972
 31
0.0
  0
LINE
  5
4B49
330
1F
100
AcDbEntity
  8
3-線
100
AcDbLine
 10
173.5
 20
259.0
 30
0.0
 11
183.5
 21
259.0
 31
0.0
  0
LINE
  5
4B4A
330
1F
100
AcDbEntity
  8
3-線
100
AcDbLine
 10
174.5
 20
232.0000000000001
 30
0.0
 11
182.5
 21
231.9999999999999
 31
0.0
  0
LINE
  5
4B4B
330
1F
100
AcDbEntity
  8
3-線
100
AcDbLine
 10
173.5000000000001
 20
233.0
 30
0.0
 11
183.5
 21
233.0
 31
0.0
  0
LINE
  5
4B4C
330
1F
100
AcDbEntity
  8
3-線
100
AcDbLine
 10
174.5
 20
220.0
 30
0.0
 11
182.5
 21
220.0
 31
0.0
  0
LINE
  5
4B4D
330
1F
100
AcDbEntity
  8
3-線
100
AcDbLine
 10
174.5
 20
260.0
 30
0.0
 11
182.5
 21
260.0
 31
0.0
  0
LINE
  5
4B4E
330
1F
100
AcDbEntity
  8
3-線
100
AcDbLine
 10
165.5
 20
217.9999999999999
 30
0.0
 11
177.15
 21
217.9999999999999
 31
0.0
  0
LINE
  5
4B4F
330
1F
100
AcDbEntity
  8
3-線
100
AcDbLine
 10
165.5
 20
262.0
 30
0.0
 11
177.15
 21
262.0
 31
0.0
  0
LINE
  5
4B50
330
1F
100
AcDbEntity
  8
3-線
100
AcDbLine
 10
165.5
 20
252.5
 30
0.0
 11
165.5
 21
227.5
 31
0.0
  0
LINE
  5
4B51
330
1F
100
AcDbEntity
  8
3-線
100
AcDbLine
 10
174.5
 20
232.0000000000001
 30
0.0
 11
174.5
 21
220.0
 31
0.0
  0
LINE
  5
4B52
330
1F
100
AcDbEntity
  8
3-線
100
AcDbLine
 10
173.5
 20
262.0
 30
0.0
 11
173.5
 21
233.0000000000001
 31
0.0
  0
LINE
  5
4B53
330
1F
100
AcDbEntity
  8
3-線
100
AcDbLine
 10
163.5
 20
260.0
 30
0.0
 11
163.5
 21
219.9999999999999
 31
0.0
  0
ARC
  5
4B54
330
1F
100
AcDbEntity
  8
3-線
100
AcDbCircle
 10
165.5
 20
219.9999999999999
 30
0.0
 40
2.0
100
AcDbArc
 50
180.0
 51
270.0
  0
LINE
  5
4B55
330
1F
100
AcDbEntity
  8
3-線
100
AcDbLine
 10
165.5
 20
227.5
 30
0.0
 11
174.5
 21
227.5
 31
0.0
  0
LINE
  5
4B56
330
1F
100
AcDbEntity
  8
3-線
100
AcDbLine
 10
163.5
 20
225.5
 30
0.0
 11
165.5
 21
227.5
 31
0.0
  0
LINE
  5
4B57
330
1F
100
AcDbEntity
  8
3-線
100
AcDbLine
 10
163.5
 20
254.5
 30
0.0
 11
165.5
 21
252.5
 31
0.0
  0
LINE
  5
4B58
330
1F
100
AcDbEntity
  8
3-線
100
AcDbLine
 10
174.5
 20
232.0000000000001
 30
0.0
 11
173.5000000000001
 21
233.0
 31
0.0
  0
LINE
  5
4B59
330
1F
100
AcDbEntity
  8
3-線
100
AcDbLine
 10
165.5
 20
252.5
 30
0.0
 11
173.5
 21
252.5
 31
0.0
  0
ARC
  5
4B5A
330
1F
100
AcDbEntity
  8
3-線
100
AcDbCircle
 10
165.5
 20
260.0
 30
0.0
 40
2.0
100
AcDbArc
 50
90.0
 51
180.0
  0
LINE
  5
4B5B
330
1F
100
AcDbEntity
  8
3-線
100
AcDbLine
 10
173.5
 20
259.0
 30
0.0
 11
174.5
 21
260.0
 31
0.0
  0
LINE
  5
4B5C
330
1F
100
AcDbEntity
  8
3-線
100
AcDbLine
 10
229.5
 20
252.0
 30
0.0
 11
229.5
 21
228.0000000000002
 31
0.0
  0
ARC
  5
4B5D
330
1F
100
AcDbEntity
  8
3-線
100
AcDbCircle
 10
216.0
 20
240.0
 30
0.0
 40
12.5
100
AcDbArc
 50
270.0
 51
90.0
  0
LINE
  5
4B5E
330
1F
100
AcDbEntity
  8
3-線
100
AcDbLine
 10
254.8500000000001
 20
235.1856983891742
 30
0.0
 11
254.8500000000001
 21
218.0000000000001
 31
0.0
  0
LINE
  5
4B5F
330
1F
100
AcDbEntity
  8
3-線
100
AcDbLine
 10
252.15
 20
235.1856983891742
 30
0.0
 11
252.15
 21
217.9999999999999
 31
0.0
  0
LINE
  5
4B60
330
1F
100
AcDbEntity
  8
3-線
100
AcDbLine
 10
252.5
 20
219.0
 30
0.0
 11
252.5
 21
261.0
 31
0.0
  0
LINE
  5
4B61
330
1F
100
AcDbEntity
  8
3-線
100
AcDbLine
 10
254.5
 20
219.0
 30
0.0
 11
254.5
 21
261.0
 31
0.0
  0
LINE
  5
4B62
330
1F
100
AcDbEntity
  8
1-破線
100
AcDbLine
 10
266.5
 20
252.5
 30
0.0
 11
266.5
 21
227.4999999999999
 31
0.0
  0
LINE
  5
4B63
330
1F
100
AcDbEntity
  8
3-線
100
AcDbLine
 10
268.5
 20
260.0
 30
0.0
 11
268.5
 21
219.9999999999999
 31
0.0
  0
LINE
  5
4B64
330
1F
100
AcDbEntity
  8
3-線
100
AcDbLine
 10
240.0
 20
262.0
 30
0.0
 11
240.0
 21
217.9999999999999
 31
0.0
  0
LINE
  5
4B65
330
1F
100
AcDbEntity
  8
3-線
100
AcDbLine
 10
243.0
 20
262.0
 30
0.0
 11
243.0
 21
217.9999999999999
 31
0.0
  0
LINE
  5
4B66
330
1F
100
AcDbEntity
  8
3-線
100
AcDbLine
 10
238.5000000000002
 20
251.5
 30
0.0
 11
238.4999999999999
 21
228.5000000000001
 31
0.0
  0
LINE
  5
4B67
330
1F
100
AcDbEntity
  8
3-線
100
AcDbLine
 10
182.5
 20
231.9999999999999
 30
0.0
 11
182.5
 21
220.0
 31
0.0
  0
LINE
  5
4B68
330
1F
100
AcDbEntity
  8
3-線
100
AcDbLine
 10
183.5
 20
262.0
 30
0.0
 11
183.5
 21
233.0
 31
0.0
  0
LINE
  5
4B6A
330
1F
100
AcDbEntity
  8
3-線
100
AcDbLine
 10
193.5
 20
262.0
 30
0.0
 11
193.4999999999994
 21
217.9999999999999
 31
0.0
  0
LINE
  5
4B6E
330
1F
100
AcDbEntity
  8
1-破線
100
AcDbLine
 10
266.5
 20
227.4999999999999
 30
0.0
 11
238.2320508075688
 21
227.5000000000001
 31
0.0
  0
LINE
  5
4B6F
330
1F
100
AcDbEntity
  8
3-線
100
AcDbLine
 10
243.0
 20
219.0
 30
0.0
 11
240.0
 21
219.0
 31
0.0
  0
LINE
  5
4B72
330
1F
100
AcDbEntity
  8
3-線
100
AcDbLine
 10
200.4999999999995
 20
227.5
 30
0.0
 11
216.0
 21
227.5
 31
0.0
  0
ARC
  5
4B73
330
1F
100
AcDbEntity
  8
3-線
100
AcDbCircle
 10
216.0
 20
207.0189616982044
 30
0.0
 40
14.98103830179572
100
AcDbArc
 50
90.0
 51
132.8618651495652
  0
LINE
  5
4B74
330
1F
100
AcDbEntity
  8
3-線
100
AcDbLine
 10
203.5
 20
226.5000000000001
 30
0.0
 11
236.4999999999999
 21
226.5000000000002
 31
0.0
  0
LINE
  5
4B75
330
1F
100
AcDbEntity
  8
3-線
100
AcDbLine
 10
240.0
 20
217.9999999999999
 30
0.0
 11
205.8094010767585
 21
217.9999999999999
 31
0.0
  0
LINE
  5
4B7A
330
1F
100
AcDbEntity
  8
3-線
100
AcDbLine
 10
182.5
 20
227.5
 30
0.0
 11
193.5
 21
227.5
 31
0.0
  0
LINE
  5
4B7B
330
1F
100
AcDbEntity
  8
3-線
100
AcDbLine
 10
189.0
 20
219.0
 30
0.0
 11
192.0
 21
219.0
 31
0.0
  0
CIRCLE
  5
4B7C
330
1F
100
AcDbEntity
  8
3-線
100
AcDbCircle
 10
178.5
 20
219.0
 30
0.0
 40
1.0
  0
LINE
  5
4B7D
330
1F
100
AcDbEntity
  8
3-線
100
AcDbLine
 10
189.0
 20
219.0
 30
0.0
 11
189.0
 21
217.9999999999999
 31
0.0
  0
LINE
  5
4B7E
330
1F
100
AcDbEntity
  8
3-線
100
AcDbLine
 10
177.15
 20
220.0
 30
0.0
 11
177.15
 21
217.9999999999999
 31
0.0
  0
LINE
  5
4B7F
330
1F
100
AcDbEntity
  8
3-線
100
AcDbLine
 10
179.85
 20
220.0
 30
0.0
 11
179.85
 21
217.9999999999999
 31
0.0
  0
LINE
  5
4B80
330
1F
100
AcDbEntity
  8
3-線
100
AcDbLine
 10
179.85
 20
217.9999999999999
 30
0.0
 11
189.0
 21
217.9999999999999
 31
0.0
  0
LINE
  5
4B85
330
1F
100
AcDbEntity
  8
3-線
100
AcDbLine
 10
203.5
 20
222.0000000000001
 30
0.0
 11
205.8094010767586
 21
218.0
 31
0.0
  0
LINE
  5
4B86
330
1F
100
AcDbEntity
  8
3-線
100
AcDbLine
 10
192.0
 20
219.0
 30
0.0
 11
192.0
 21
217.9999999999999
 31
0.0
  0
LINE
  5
4B8D
330
1F
100
AcDbEntity
  8
3-線
100
AcDbLine
 10
192.0
 20
217.9999999999999
 30
0.0
 11
193.4999999999994
 21
217.9999999999999
 31
0.0
  0
ARC
  5
4B95
330
1F
100
AcDbEntity
  8
3-線
100
AcDbCircle
 10
200.4999999999995
 20
220.5
 30
0.0
 40
7.0
100
AcDbArc
 50
90.0
 51
179.9999999999984
  0
LINE
  5
4B96
330
1F
100
AcDbEntity
  8
3-線
100
AcDbLine
 10
202.5
 20
227.5
 30
0.0
 11
203.5
 21
226.5000000000001
 31
0.0
  0
LINE
  5
4B97
330
1F
100
AcDbEntity
  8
3-線
100
AcDbLine
 10
203.5
 20
226.5000000000001
 30
0.0
 11
203.5
 21
222.0000000000001
 31
0.0
  0
LINE
  5
4B9E
330
1F
100
AcDbEntity
  8
3-線
100
AcDbLine
 10
216.0
 20
222.0000000000001
 30
0.0
 11
231.4999999999999
 21
222.0000000000001
 31
0.0
  0
ARC
  5
4BBA
330
1F
100
AcDbEntity
  8
3-線
100
AcDbCircle
 10
231.4999999999999
 20
229.0
 30
0.0
 40
7.0
100
AcDbArc
 50
270.0
 51
0.0
  0
LINE
  5
4BBB
330
1F
100
AcDbEntity
  8
3-線
100
AcDbLine
 10
228.0
 20
226.5000000000001
 30
0.0
 11
229.5
 21
228.0000000000001
 31
0.0
  0
ARC
  5
4BBC
330
1F
100
AcDbEntity
  8
3-線
100
AcDbCircle
 10
236.4999999999999
 20
228.5000000000002
 30
0.0
 40
2.0
100
AcDbArc
 50
270.0
 51
359.9999999999984
  0
LINE
  5
4BBD
330
1F
100
AcDbEntity
  8
3-線
100
AcDbLine
 10
266.5
 20
217.9999999999999
 30
0.0
 11
254.8500000000001
 21
218.0000000000001
 31
0.0
  0
ARC
  5
4BBE
330
1F
100
AcDbEntity
  8
3-線
100
AcDbCircle
 10
253.5
 20
219.0
 30
0.0
 40
1.0
100
AcDbArc
 50
180.0
 51
0.0
  0
LINE
  5
4BBF
330
1F
100
AcDbEntity
  8
3-線
100
AcDbLine
 10
252.15
 20
217.9999999999999
 30
0.0
 11
243.0
 21
217.9999999999999
 31
0.0
  0
LINE
  5
4BC4
330
1F
100
AcDbEntity
  8
3-線
100
AcDbLine
 10
252.5
 20
220.0
 30
0.0
 11
252.15
 21
220.0
 31
0.0
  0
LINE
  5
4BC5
330
1F
100
AcDbEntity
  8
3-線
100
AcDbLine
 10
254.85
 20
220.0
 30
0.0
 11
254.5
 21
220.0
 31
0.0
  0
ARC
  5
4BC6
330
1F
100
AcDbEntity
  8
3-線
100
AcDbCircle
 10
266.5
 20
219.9999999999999
 30
0.0
 40
2.0
100
AcDbArc
 50
270.0
 51
0.0
  0
LINE
  5
4BC7
330
1F
100
AcDbEntity
  8
1-破線
100
AcDbLine
 10
268.5
 20
225.5
 30
0.0
 11
266.5
 21
227.4999999999999
 31
0.0
  0
LINE
  5
4BCA
330
1F
100
AcDbEntity
  8
1-破線
100
AcDbLine
 10
266.5
 20
252.5
 30
0.0
 11
238.2320508075691
 21
252.5
 31
0.0
  0
LINE
  5
4BCB
330
1F
100
AcDbEntity
  8
3-線
100
AcDbLine
 10
243.0
 20
261.0
 30
0.0
 11
240.0
 21
261.0
 31
0.0
  0
LINE
  5
4BCE
330
1F
100
AcDbEntity
  8
3-線
100
AcDbLine
 10
200.5
 20
252.4999999999999
 30
0.0
 11
216.0
 21
252.5
 31
0.0
  0
ARC
  5
4BCF
330
1F
100
AcDbEntity
  8
3-線
100
AcDbCircle
 10
216.0
 20
272.9810383017965
 30
0.0
 40
14.98103830179647
100
AcDbArc
 50
227.1381348504359
 51
270.0
  0
LINE
  5
4BD0
330
1F
100
AcDbEntity
  8
3-線
100
AcDbLine
 10
203.5
 20
253.5
 30
0.0
 11
236.5000000000002
 21
253.5
 31
0.0
  0
LINE
  5
4BD1
330
1F
100
AcDbEntity
  8
3-線
100
AcDbLine
 10
240.0
 20
262.0
 30
0.0
 11
205.8094010767585
 21
262.0
 31
0.0
  0
LINE
  5
4BD2
330
1F
100
AcDbEntity
  8
3-線
100
AcDbLine
 10
202.5
 20
252.4999999999999
 30
0.0
 11
203.5
 21
253.5
 31
0.0
  0
ARC
  5
4BD3
330
1F
100
AcDbEntity
  8
3-線
100
AcDbCircle
 10
200.5
 20
259.4999999999998
 30
0.0
 40
7.0
100
AcDbArc
 50
179.9999999999984
 51
270.0
  0
LINE
  5
4BD4
330
1F
100
AcDbEntity
  8
3-線
100
AcDbLine
 10
183.5
 20
252.5
 30
0.0
 11
193.5
 21
252.5
 31
0.0
  0
LINE
  5
4BD5
330
1F
100
AcDbEntity
  8
3-線
100
AcDbLine
 10
182.5
 20
231.9999999999999
 30
0.0
 11
183.5
 21
233.0
 31
0.0
  0
LINE
  5
4BD8
330
1F
100
AcDbEntity
  8
3-線
100
AcDbLine
 10
189.0
 20
261.0
 30
0.0
 11
192.0
 21
261.0
 31
0.0
  0
LINE
  5
4BDC
330
1F
100
AcDbEntity
  8
3-線
100
AcDbLine
 10
182.5
 20
260.0
 30
0.0
 11
183.5
 21
259.0
 31
0.0
  0
LINE
  5
4BDD
330
1F
100
AcDbEntity
  8
3-線
100
AcDbLine
 10
179.85
 20
262.0
 30
0.0
 11
189.0
 21
262.0
 31
0.0
  0
CIRCLE
  5
4BDE
330
1F
100
AcDbEntity
  8
3-線
100
AcDbCircle
 10
178.5
 20
261.0
 30
0.0
 40
1.0
  0
LINE
  5
4BDF
330
1F
100
AcDbEntity
  8
3-線
100
AcDbLine
 10
179.85
 20
262.0
 30
0.0
 11
179.85
 21
260.0
 31
0.0
  0
LINE
  5
4BE0
330
1F
100
AcDbEntity
  8
3-線
100
AcDbLine
 10
177.15
 20
262.0
 30
0.0
 11
177.15
 21
260.0
 31
0.0
  0
LINE
  5
4BE1
330
1F
100
AcDbEntity
  8
3-線
100
AcDbLine
 10
189.0
 20
262.0
 30
0.0
 11
189.0
 21
261.0
 31
0.0
  0
LINE
  5
4BE5
330
1F
100
AcDbEntity
  8
3-線
100
AcDbLine
 10
192.0
 20
262.0
 30
0.0
 11
193.5
 21
262.0
 31
0.0
  0
LINE
  5
4BE6
330
1F
100
AcDbEntity
  8
3-線
100
AcDbLine
 10
192.0
 20
262.0
 30
0.0
 11
192.0
 21
261.0
 31
0.0
  0
LINE
  5
4BE7
330
1F
100
AcDbEntity
  8
3-線
100
AcDbLine
 10
205.8094010767585
 20
262.0
 30
0.0
 11
203.5
 21
258.0
 31
0.0
  0
LINE
  5
4BE8
330
1F
100
AcDbEntity
  8
3-線
100
AcDbLine
 10
203.5
 20
258.0
 30
0.0
 11
203.5
 21
253.5
 31
0.0
  0
LINE
  5
4BF6
330
1F
100
AcDbEntity
  8
3-線
100
AcDbLine
 10
228.0
 20
253.5
 30
0.0
 11
229.5
 21
252.0
 31
0.0
  0
ARC
  5
4BF7
330
1F
100
AcDbEntity
  8
3-線
100
AcDbCircle
 10
236.5000000000002
 20
251.5
 30
0.0
 40
2.0
100
AcDbArc
 50
359.9999999999984
 51
90.0
  0
ARC
  5
4BF8
330
1F
100
AcDbEntity
  8
3-線
100
AcDbCircle
 10
231.5000000000003
 20
251.0000000000001
 30
0.0
 40
7.0
100
AcDbArc
 50
0.0
 51
90.0
  0
CIRCLE
  5
4BF9
330
1F
100
AcDbEntity
  8
3-線
100
AcDbCircle
 10
216.0
 20
240.0
 30
0.0
 40
6.0
  0
LINE
  5
4BFA
330
1F
100
AcDbEntity
  8
3-線
100
AcDbLine
 10
226.1905989232416
 20
232.7610985926296
 30
0.0
 11
226.1905989232416
 21
247.2389014073704
 31
0.0
  0
LINE
  5
4BFD
330
1F
100
AcDbEntity
  8
3-線
100
AcDbLine
 10
216.0
 20
258.0
 30
0.0
 11
231.5000000000003
 21
258.0
 31
0.0
  0
LINE
  5
4C1D
330
1F
100
AcDbEntity
  8
1-破線
100
AcDbLine
 10
268.5
 20
254.5
 30
0.0
 11
266.5
 21
252.5
 31
0.0
  0
LINE
  5
4C1E
330
1F
100
AcDbEntity
  8
3-線
100
AcDbLine
 10
254.85
 20
262.0
 30
0.0
 11
254.85
 21
244.8143016108258
 31
0.0
  0
LINE
  5
4C1F
330
1F
100
AcDbEntity
  8
3-線
100
AcDbLine
 10
252.15
 20
262.0
 30
0.0
 11
252.15
 21
244.8143016108258
 31
0.0
  0
ARC
  5
4C20
330
1F
100
AcDbEntity
  8
3-線
100
AcDbCircle
 10
253.5
 20
240.0
 30
0.0
 40
5.0
100
AcDbArc
 50
281.5369590328149
 51
78.46304096718505
  0
ARC
  5
4C21
330
1F
100
AcDbEntity
  8
3-線
100
AcDbCircle
 10
253.5
 20
240.0
 30
0.0
 40
5.0
100
AcDbArc
 50
101.5369590328149
 51
258.4630409671851
  0
LINE
  5
4C22
330
1F
100
AcDbEntity
  8
3-線
100
AcDbLine
 10
266.5
 20
262.0
 30
0.0
 11
254.85
 21
262.0
 31
0.0
  0
LINE
  5
4C26
330
1F
100
AcDbEntity
  8
3-線
100
AcDbLine
 10
252.15
 20
262.0
 30
0.0
 11
243.0
 21
262.0
 31
0.0
  0
LINE
  5
4C27
330
1F
100
AcDbEntity
  8
3-線
100
AcDbLine
 10
252.5018181259508
 20
260.0
 30
0.0
 11
252.15
 21
260.0
 31
0.0
  0
ARC
  5
4C28
330
1F
100
AcDbEntity
  8
3-線
100
AcDbCircle
 10
253.5
 20
261.0
 30
0.0
 40
1.0
100
AcDbArc
 50
0.0
 51
180.0
  0
LINE
  5
4C29
330
1F
100
AcDbEntity
  8
3-線
100
AcDbLine
 10
254.85
 20
260.0
 30
0.0
 11
254.5
 21
260.0
 31
0.0
  0
ARC
  5
4C2B
330
1F
100
AcDbEntity
  8
3-線
100
AcDbCircle
 10
266.5
 20
260.0
 30
0.0
 40
2.0
100
AcDbArc
 50
0.0
 51
90.0
  0
LINE
  5
4E40
330
1F
100
AcDbEntity
  8
3-線
100
AcDbLine
 10
173.5
 20
227.5
 30
0.0
 11
173.5
 21
217.9999999999999
 31
0.0
  0
LINE
  5
4E41
330
1F
100
AcDbEntity
  8
3-線
100
AcDbLine
 10
183.5
 20
227.5
 30
0.0
 11
183.5
 21
217.9999999999999
 31
0.0
  0
ENDSEC
  0
SECTION
  2
OBJECTS
  0
DICTIONARY
  5
C
330
0
100
AcDbDictionary
281
     1
  3
ACAD_COLOR
350
5004
  3
ACAD_GROUP
350
D
  3
ACAD_LAYOUT
350
1A
  3
ACAD_MATERIAL
350
5003
  3
ACAD_MLINESTYLE
350
17
  3
ACAD_PLOTSETTINGS
350
19
  3
ACAD_PLOTSTYLENAME
350
E
  3
AcadDim
350
48F6
  3
AcDbVariableDictionary
350
985
  0
DICTIONARY
  5
474
330
1F
100
AcDbDictionary
280
     1
281
     1
  3
ACAD_LAYOUTSELFREF
360
4B6
  0
DICTIONARY
  5
476
330
1B
100
AcDbDictionary
280
     1
281
     1
  3
ACAD_LAYOUTSELFREF
360
4B5
  0
DICTIONARY
  5
478
330
23
100
AcDbDictionary
280
     1
281
     1
  3
ACAD_LAYOUTSELFREF
360
4B7
  0
DICTIONARY
  5
5004
102
{ACAD_REACTORS
330
C
102
}
330
C
100
AcDbDictionary
281
     1
  0
DICTIONARY
  5
D
102
{ACAD_REACTORS
330
C
102
}
330
C
100
AcDbDictionary
281
     1
  0
DICTIONARY
  5
1A
102
{ACAD_REACTORS
330
C
102
}
330
C
100
AcDbDictionary
281
     1
  3
Model
350
22
  3
ﾚｲｱｳﾄ1
350
1E
  3
ﾚｲｱｳﾄ2
350
26
  0
DICTIONARY
  5
5003
102
{ACAD_REACTORS
330
C
102
}
330
C
100
AcDbDictionary
281
     1
  0
DICTIONARY
  5
17
102
{ACAD_REACTORS
330
C
102
}
330
C
100
AcDbDictionary
281
     1
  3
Standard
350
18
  0
DICTIONARY
  5
19
102
{ACAD_REACTORS
330
C
102
}
330
C
100
AcDbDictionary
281
     1
  3
Kyouwa-A3
350
4E30
  0
ACDBDICTIONARYWDFLT
  5
E
102
{ACAD_REACTORS
330
C
102
}
330
C
100
AcDbDictionary
281
     1
  3
Normal
350
F
100
AcDbDictionaryWithDefault
340
F
1001
ACAD
1000
TREAT_AS_HARD
1070
     0
  0
XRECORD
  5
48F6
102
{ACAD_REACTORS
330
C
102
}
330
C
100
AcDbXrecord
280
     1
 90
   990106
  3

 60
     4
 61
     0
 62
     4
 63
     4
 64
     1
 65
     0
 66
     0
 67
     2
 68
     1
 69
     0
 70
     0
 71
     0
 72
     0
 40
15.0
170
     1
  0
DICTIONARY
  5
985
102
{ACAD_REACTORS
330
C
102
}
330
C
100
AcDbDictionary
281
     1
  3
SORTENTS
350
986
  0
XRECORD
  5
4B6
102
{ACAD_REACTORS
330
474
102
}
330
474
100
AcDbXrecord
280
     1
340
1F
  0
XRECORD
  5
4B5
102
{ACAD_REACTORS
330
476
102
}
330
476
100
AcDbXrecord
280
     1
340
1B
  0
XRECORD
  5
4B7
102
{ACAD_REACTORS
330
478
102
}
330
478
100
AcDbXrecord
280
     1
340
23
  0
LAYOUT
  5
22
102
{ACAD_REACTORS
330
1A
102
}
330
1A
100
AcDbPlotSettings
  1
Kyouwa-A3
  2
HP DesignJet 430.pc3
  4
User269
  6
OLE1
 40
4.995333194732666
 41
16.93333625793457
 42
4.995330810546875
 43
16.93331909179687
 44
296.9259948730469
 45
419.8619995117186
 46
-5.0
 47
-25.0
 48
0.0
 49
0.0
140
0.0
141
0.0
142
1.0
143
1.0
 70
 11952
 72
     1
 73
     1
 74
     2
  7
monochrome.ctb
 75
    16
147
1.0
 76
     0
 77
     2
 78
   300
148
0.0
149
0.0
100
AcDbLayout
  1
Model
 70
     1
 71
     0
 10
0.0
 20
0.0
 11
12.0
 21
9.0
 12
0.0
 22
0.0
 32
0.0
 14
0.0
 24
0.0
 34
0.0
 15
0.0
 25
0.0
 35
0.0
146
0.0
 13
0.0
 23
0.0
 33
0.0
 16
1.0
 26
0.0
 36
0.0
 17
0.0
 27
1.0
 37
0.0
 76
     0
330
1F
  0
LAYOUT
  5
1E
102
{ACAD_REACTORS
330
1A
102
}
330
1A
100
AcDbPlotSettings
  1

  2
C:\PROGRAM FILES\AUTOCAD LT 2000I\plotters\DWF Classic.pc3
  4

  6

 40
0.0
 41
0.0
 42
0.0
 43
0.0
 44
0.0
 45
0.0
 46
0.0
 47
0.0
 48
0.0
 49
0.0
140
0.0
141
0.0
142
1.0
143
1.0
 70
   688
 72
     0
 73
     0
 74
     5
  7
monochrome.ctb
 75
    16
147
1.0
 76
     0
 77
     2
 78
   300
148
0.0
149
0.0
100
AcDbLayout
  1
ﾚｲｱｳﾄ1
 70
     1
 71
     1
 10
0.0
 20
0.0
 11
420.0
 21
297.0
 12
0.0
 22
0.0
 32
0.0
 14
1.000000000000000E+20
 24
1.000000000000000E+20
 34
1.000000000000000E+20
 15
-1.000000000000000E+20
 25
-1.000000000000000E+20
 35
-1.000000000000000E+20
146
0.0
 13
0.0
 23
0.0
 33
0.0
 16
1.0
 26
0.0
 36
0.0
 17
0.0
 27
1.0
 37
0.0
 76
     0
330
1B
  0
LAYOUT
  5
26
102
{ACAD_REACTORS
330
1A
102
}
330
1A
100
AcDbPlotSettings
  1

  2
C:\PROGRAM FILES\AUTOCAD LT 2000I\plotters\DWF Classic.pc3
  4

  6

 40
0.0
 41
0.0
 42
0.0
 43
0.0
 44
0.0
 45
0.0
 46
0.0
 47
0.0
 48
0.0
 49
0.0
140
0.0
141
0.0
142
1.0
143
1.0
 70
   688
 72
     0
 73
     0
 74
     5
  7
monochrome.ctb
 75
    16
147
1.0
 76
     0
 77
     2
 78
   300
148
0.0
149
0.0
100
AcDbLayout
  1
ﾚｲｱｳﾄ2
 70
     1
 71
     2
 10
0.0
 20
0.0
 11
12.0
 21
9.0
 12
0.0
 22
0.0
 32
0.0
 14
0.0
 24
0.0
 34
0.0
 15
0.0
 25
0.0
 35
0.0
146
0.0
 13
0.0
 23
0.0
 33
0.0
 16
1.0
 26
0.0
 36
0.0
 17
0.0
 27
1.0
 37
0.0
 76
     0
330
23
  0
MLINESTYLE
  5
18
102
{ACAD_REACTORS
330
17
102
}
330
17
100
AcDbMlineStyle
  2
STANDARD
 70
     0
  3

 62
   256
 51
90.0
 52
90.0
 71
     2
 49
0.5
 62
   256
  6
BYLAYER
 49
-0.5
 62
   256
  6
BYLAYER
  0
PLOTSETTINGS
  5
4E30
102
{ACAD_REACTORS
330
19
102
}
330
19
100
AcDbPlotSettings
  1
Kyouwa-A3
  2
HP DesignJet 430.pc3
  4
User269
  6
OLE1
 40
4.995333194732666
 41
16.93333625793457
 42
4.995330810546875
 43
16.93331909179687
 44
296.9259948730469
 45
419.8619995117186
 46
-5.0
 47
-25.0
 48
0.0
 49
0.0
140
0.0
141
0.0
142
1.0
143
1.0
 70
  1712
 72
     1
 73
     1
 74
     2
  7
monochrome.ctb
 75
    16
147
1.0
 76
     0
 77
     2
 78
   300
148
0.0
149
0.0
  0
ACDBPLACEHOLDER
  5
F
102
{ACAD_REACTORS
330
E
102
}
330
E
  0
DICTIONARYVAR
  5
986
102
{ACAD_REACTORS
330
985
102
}
330
985
100
DictionaryVariables
280
     0
  1
96
  0
ENDSEC
  0
EOF
