  0
SECTION
  2
HEADER
  9
$ACADVER
  1
AC1018
  9
$ACADMAINTVER
 70
     2
  9
$DWGCODEPAGE
  3
ANSI_932
  9
$TITLE
  1

  9
$SUBJECT
  1

  9
$AUTHOR
  1

  9
$KEYWORDS
  1

  9
$COMMENTS
  1

  9
$LASTSAVEDBY
  1

  9
$REVISIONNUMBER
  1

  9
$INSBASE
 10
0.0
 20
0.0
 30
0.0
  9
$EXTMIN
 10
132.0703136316388
 20
182.6702279549444
 30
-0.000000000000013
  9
$EXTMAX
 10
298.2156380431443
 20
209.3175665074
 30
0.0000000000000023
  9
$LIMMIN
 10
0.0
 20
0.0
  9
$LIMMAX
 10
420.0
 20
297.0
  9
$ORTHOMODE
 70
     1
  9
$REGENMODE
 70
     1
  9
$FILLMODE
 70
     1
  9
$QTEXTMODE
 70
     0
  9
$MIRRTEXT
 70
     1
  9
$LTSCALE
 40
0.5
  9
$ATTMODE
 70
     1
  9
$TEXTSIZE
 40
3.0
  9
$TRACEWID
 40
1.0
  9
$TEXTSTYLE
  7
Standard
  9
$CLAYER
  8
1-線
  9
$CELTYPE
  6
ByLayer
  9
$CECOLOR
 62
   256
  9
$CELTSCALE
 40
1.0
  9
$DISPSILH
 70
     0
  9
$DIMSCALE
 40
1.0
  9
$DIMASZ
 40
2.5
  9
$DIMEXO
 40
0.0
  9
$DIMDLI
 40
3.75
  9
$DIMRND
 40
0.0
  9
$DIMDLE
 40
0.0
  9
$DIMEXE
 40
1.0
  9
$DIMTP
 40
0.0
  9
$DIMTM
 40
0.0
  9
$DIMTXT
 40
3.0
  9
$DIMCEN
 40
0.0
  9
$DIMTSZ
 40
0.0
  9
$DIMTOL
 70
     0
  9
$DIMLIM
 70
     0
  9
$DIMTIH
 70
     0
  9
$DIMTOH
 70
     0
  9
$DIMSE1
 70
     0
  9
$DIMSE2
 70
     0
  9
$DIMTAD
 70
     1
  9
$DIMZIN
 70
     8
  9
$DIMBLK
  1
Open30
  9
$DIMASO
 70
     1
  9
$DIMSHO
 70
     1
  9
$DIMPOST
  1

  9
$DIMAPOST
  1

  9
$DIMALT
 70
     0
  9
$DIMALTD
 70
     3
  9
$DIMALTF
 40
0.1
  9
$DIMLFAC
 40
1.0
  9
$DIMTOFL
 70
     1
  9
$DIMTVP
 40
0.0
  9
$DIMTIX
 70
     0
  9
$DIMSOXD
 70
     0
  9
$DIMSAH
 70
     0
  9
$DIMBLK1
  1

  9
$DIMBLK2
  1

  9
$DIMSTYLE
  2
Kyouwa
  9
$DIMCLRD
 70
     0
  9
$DIMCLRE
 70
     0
  9
$DIMCLRT
 70
     0
  9
$DIMTFAC
 40
0.7
  9
$DIMGAP
 40
1.0
  9
$DIMJUST
 70
     0
  9
$DIMSD1
 70
     0
  9
$DIMSD2
 70
     0
  9
$DIMTOLJ
 70
     0
  9
$DIMTZIN
 70
     8
  9
$DIMALTZ
 70
     0
  9
$DIMALTTZ
 70
     0
  9
$DIMUPT
 70
     0
  9
$DIMDEC
 70
     2
  9
$DIMTDEC
 70
     2
  9
$DIMALTU
 70
     2
  9
$DIMALTTD
 70
     3
  9
$DIMTXSTY
  7
Standard
  9
$DIMAUNIT
 70
     0
  9
$DIMADEC
 70
     0
  9
$DIMALTRND
 40
0.0
  9
$DIMAZIN
 70
     0
  9
$DIMDSEP
 70
    46
  9
$DIMATFIT
 70
     3
  9
$DIMFRAC
 70
     0
  9
$DIMLDRBLK
  1
Open30
  9
$DIMLUNIT
 70
     2
  9
$DIMLWD
 70
    -2
  9
$DIMLWE
 70
    -2
  9
$DIMTMOVE
 70
     0
  9
$LUNITS
 70
     2
  9
$LUPREC
 70
     4
  9
$SKETCHINC
 40
1.0
  9
$FILLETRAD
 40
1.0
  9
$AUNITS
 70
     0
  9
$AUPREC
 70
     0
  9
$MENU
  1
.
  9
$ELEVATION
 40
0.0
  9
$PELEVATION
 40
0.0
  9
$THICKNESS
 40
0.0
  9
$LIMCHECK
 70
     0
  9
$CHAMFERA
 40
0.0
  9
$CHAMFERB
 40
0.0
  9
$CHAMFERC
 40
20.0
  9
$CHAMFERD
 40
0.0
  9
$SKPOLY
 70
     0
  9
$TDCREATE
 40
2452108.402762732
  9
$TDUCREATE
 40
2452108.027762732
  9
$TDUPDATE
 40
2454348.754071354
  9
$TDUUPDATE
 40
2454348.379071354
  9
$TDINDWG
 40
1.3444900926
  9
$TDUSRTIMER
 40
1.3444892130
  9
$USRTIMER
 70
     1
  9
$ANGBASE
 50
0.0
  9
$ANGDIR
 70
     0
  9
$PDMODE
 70
     0
  9
$PDSIZE
 40
0.0
  9
$PLINEWID
 40
0.0
  9
$SPLFRAME
 70
     0
  9
$SPLINETYPE
 70
     6
  9
$SPLINESEGS
 70
     8
  9
$HANDSEED
  5
39EB
  9
$SURFTAB1
 70
     6
  9
$SURFTAB2
 70
     6
  9
$SURFTYPE
 70
     6
  9
$SURFU
 70
     6
  9
$SURFV
 70
     6
  9
$UCSBASE
  2

  9
$UCSNAME
  2

  9
$UCSORG
 10
0.0
 20
0.0
 30
0.0
  9
$UCSXDIR
 10
1.0
 20
0.0
 30
0.0
  9
$UCSYDIR
 10
0.0
 20
1.0
 30
0.0
  9
$UCSORTHOREF
  2

  9
$UCSORTHOVIEW
 70
     0
  9
$UCSORGTOP
 10
0.0
 20
0.0
 30
0.0
  9
$UCSORGBOTTOM
 10
0.0
 20
0.0
 30
0.0
  9
$UCSORGLEFT
 10
0.0
 20
0.0
 30
0.0
  9
$UCSORGRIGHT
 10
0.0
 20
0.0
 30
0.0
  9
$UCSORGFRONT
 10
0.0
 20
0.0
 30
0.0
  9
$UCSORGBACK
 10
0.0
 20
0.0
 30
0.0
  9
$PUCSBASE
  2

  9
$PUCSNAME
  2

  9
$PUCSORG
 10
0.0
 20
0.0
 30
0.0
  9
$PUCSXDIR
 10
1.0
 20
0.0
 30
0.0
  9
$PUCSYDIR
 10
0.0
 20
1.0
 30
0.0
  9
$PUCSORTHOREF
  2

  9
$PUCSORTHOVIEW
 70
     0
  9
$PUCSORGTOP
 10
0.0
 20
0.0
 30
0.0
  9
$PUCSORGBOTTOM
 10
0.0
 20
0.0
 30
0.0
  9
$PUCSORGLEFT
 10
0.0
 20
0.0
 30
0.0
  9
$PUCSORGRIGHT
 10
0.0
 20
0.0
 30
0.0
  9
$PUCSORGFRONT
 10
0.0
 20
0.0
 30
0.0
  9
$PUCSORGBACK
 10
0.0
 20
0.0
 30
0.0
  9
$USERI1
 70
     0
  9
$USERI2
 70
     0
  9
$USERI3
 70
     0
  9
$USERI4
 70
     0
  9
$USERI5
 70
     0
  9
$USERR1
 40
0.0
  9
$USERR2
 40
0.0
  9
$USERR3
 40
0.0
  9
$USERR4
 40
0.0
  9
$USERR5
 40
0.0
  9
$WORLDVIEW
 70
     1
  9
$SHADEDGE
 70
     3
  9
$SHADEDIF
 70
    70
  9
$TILEMODE
 70
     1
  9
$MAXACTVP
 70
    48
  9
$PINSBASE
 10
0.0
 20
0.0
 30
0.0
  9
$PLIMCHECK
 70
     0
  9
$PEXTMIN
 10
1.000000000000000E+20
 20
1.000000000000000E+20
 30
1.000000000000000E+20
  9
$PEXTMAX
 10
-1.000000000000000E+20
 20
-1.000000000000000E+20
 30
-1.000000000000000E+20
  9
$PLIMMIN
 10
0.0
 20
0.0
  9
$PLIMMAX
 10
420.0
 20
297.0
  9
$UNITMODE
 70
     0
  9
$VISRETAIN
 70
     1
  9
$PLINEGEN
 70
     0
  9
$PSLTSCALE
 70
     1
  9
$TREEDEPTH
 70
  3020
  9
$CMLSTYLE
  2
Standard
  9
$CMLJUST
 70
     0
  9
$CMLSCALE
 40
20.0
  9
$PROXYGRAPHICS
 70
     1
  9
$MEASUREMENT
 70
     0
  9
$CELWEIGHT
370
    -1
  9
$ENDCAPS
280
     0
  9
$JOINSTYLE
280
     0
  9
$LWDISPLAY
290
     0
  9
$INSUNITS
 70
     4
  9
$HYPERLINKBASE
  1

  9
$STYLESHEET
  1
MONOCHROME.CTB
  9
$XEDIT
290
     1
  9
$CEPSNTYPE
380
     0
  9
$PSTYLEMODE
290
     1
  9
$FINGERPRINTGUID
  2
{D5BDD00D-7A95-11D5-B0EC-00E0181A799A}
  9
$VERSIONGUID
  2
{06CBC6CE-667C-4683-8323-25757266AED7}
  9
$EXTNAMES
290
     1
  9
$PSVPSCALE
 40
0.0
  9
$OLESTARTUP
290
     0
  9
$SORTENTS
280
    96
  9
$INDEXCTL
280
     0
  9
$HIDETEXT
280
     0
  9
$XCLIPFRAME
290
     0
  9
$HALOGAP
280
     0
  9
$OBSCOLOR
 70
   257
  9
$OBSLTYPE
280
     0
  9
$INTERSECTIONDISPLAY
280
     0
  9
$INTERSECTIONCOLOR
 70
   257
  9
$DIMASSOC
280
     1
  9
$PROJECTNAME
  1

  0
ENDSEC
  0
SECTION
  2
CLASSES
  0
CLASS
  1
ACDBDICTIONARYWDFLT
  2
AcDbDictionaryWithDefault
  3
ObjectDBX Classes
 90
        0
 91
        1
280
     0
281
     0
  0
CLASS
  1
PLOTSETTINGS
  2
AcDbPlotSettings
  3
ObjectDBX Classes
 90
        0
 91
        1
280
     0
281
     0
  0
CLASS
  1
DICTIONARYVAR
  2
AcDbDictionaryVar
  3
ObjectDBX Classes
 90
        0
 91
        3
280
     0
281
     0
  0
ENDSEC
  0
SECTION
  2
TABLES
  0
TABLE
  2
VPORT
  5
8
330
0
100
AcDbSymbolTable
 70
     3
  0
VPORT
  5
39EA
330
8
100
AcDbSymbolTableRecord
100
AcDbViewportTableRecord
  2
*Active
 70
     0
 10
0.0
 20
0.0
 11
1.0
 21
1.0
 12
215.1429758373915
 22
195.9938972311722
 13
0.0
 23
0.0
 14
4.0
 24
4.0
 15
8.0
 25
8.0
 16
0.0
 26
0.0
 36
1.0
 17
0.0
 27
0.0
 37
0.0
 40
77.47588907195669
 41
2.155234657039711
 42
50.0
 43
0.0
 44
0.0
 50
0.0
 51
0.0
 71
     0
 72
   100
 73
     1
 74
     3
 75
     0
 76
     1
 77
     0
 78
     0
281
     0
 65
     1
110
0.0
120
0.0
130
0.0
111
1.0
121
0.0
131
0.0
112
0.0
122
1.0
132
0.0
 79
     0
146
0.0
  0
ENDTAB
  0
TABLE
  2
LTYPE
  5
5
330
0
100
AcDbSymbolTable
 70
     5
  0
LTYPE
  5
14
330
5
100
AcDbSymbolTableRecord
100
AcDbLinetypeTableRecord
  2
ByBlock
 70
     0
  3

 72
    65
 73
     0
 40
0.0
  0
LTYPE
  5
15
330
5
100
AcDbSymbolTableRecord
100
AcDbLinetypeTableRecord
  2
ByLayer
 70
     0
  3

 72
    65
 73
     0
 40
0.0
  0
LTYPE
  5
16
330
5
100
AcDbSymbolTableRecord
100
AcDbLinetypeTableRecord
  2
Continuous
 70
     0
  3
Solid line
 72
    65
 73
     0
 40
0.0
  0
LTYPE
  5
2D
330
5
100
AcDbSymbolTableRecord
100
AcDbLinetypeTableRecord
  2
HIDDEN2
 70
     0
  3
Hidden (.5x) _ _ _ _ _ _ _ _ _ _ _ _ _ _ _ _ _
 72
    65
 73
     2
 40
4.762499999999998
 49
3.174999999999998
 74
     0
 49
-1.587499999999999
 74
     0
  0
LTYPE
  5
2E
330
5
100
AcDbSymbolTableRecord
100
AcDbLinetypeTableRecord
  2
CENTER2
 70
     0
  3
Center (.5x) ___ _ ___ _ ___ _ ___ _ ___ _ ___
 72
    65
 73
     4
 40
28.575
 49
19.05
 74
     0
 49
-3.174999999999998
 74
     0
 49
3.174999999999998
 74
     0
 49
-3.174999999999998
 74
     0
  0
LTYPE
  5
2F
330
5
100
AcDbSymbolTableRecord
100
AcDbLinetypeTableRecord
  2
PHANTOM2
 70
     0
  3
Phantom (.5x) ___ _ _ ___ _ _ ___ _ _ ___ _ _
 72
    65
 73
     6
 40
31.75
 49
15.875
 74
     0
 49
-3.174999999999998
 74
     0
 49
3.174999999999998
 74
     0
 49
-3.174999999999998
 74
     0
 49
3.174999999999998
 74
     0
 49
-3.174999999999998
 74
     0
  0
LTYPE
  5
FD
330
5
100
AcDbSymbolTableRecord
100
AcDbLinetypeTableRecord
  2
CENTER
 70
     0
  3
Center ____ _ ____ _ ____ _ ____ _ ____ _ ____
 72
    65
 73
     4
 40
50.8
 49
31.75
 74
     0
 49
-6.349999999999997
 74
     0
 49
6.349999999999997
 74
     0
 49
-6.349999999999997
 74
     0
  0
ENDTAB
  0
TABLE
  2
LAYER
  5
2
330
0
100
AcDbSymbolTable
 70
    17
  0
LAYER
  5
10
330
2
100
AcDbSymbolTableRecord
100
AcDbLayerTableRecord
  2
0
 70
     0
 62
     7
  6
Continuous
370
   100
390
F
  0
LAYER
  5
30
330
2
100
AcDbSymbolTableRecord
100
AcDbLayerTableRecord
  2
1-線
 70
     0
 62
     3
  6
Continuous
370
    18
390
F
  0
LAYER
  5
31
330
2
100
AcDbSymbolTableRecord
100
AcDbLayerTableRecord
  2
1-破線
 70
     0
 62
     3
  6
HIDDEN2
370
    18
390
F
  0
LAYER
  5
32
330
2
100
AcDbSymbolTableRecord
100
AcDbLayerTableRecord
  2
1-1点
 70
     0
 62
     3
  6
CENTER2
370
    18
390
F
  0
LAYER
  5
33
330
2
100
AcDbSymbolTableRecord
100
AcDbLayerTableRecord
  2
1-2点
 70
     0
 62
     3
  6
PHANTOM2
370
    18
390
F
  0
LAYER
  5
3A
330
2
100
AcDbSymbolTableRecord
100
AcDbLayerTableRecord
  2
2-1点
 70
     0
 62
     6
  6
CENTER2
370
    18
390
F
  0
LAYER
  5
3B
330
2
100
AcDbSymbolTableRecord
100
AcDbLayerTableRecord
  2
2-2点
 70
     0
 62
     6
  6
PHANTOM2
370
    18
390
F
  0
LAYER
  5
3C
330
2
100
AcDbSymbolTableRecord
100
AcDbLayerTableRecord
  2
2-線
 70
     0
 62
     6
  6
Continuous
370
    18
390
F
  0
LAYER
  5
3D
330
2
100
AcDbSymbolTableRecord
100
AcDbLayerTableRecord
  2
2-破線
 70
     0
 62
     6
  6
HIDDEN2
370
    18
390
F
  0
LAYER
  5
3E
330
2
100
AcDbSymbolTableRecord
100
AcDbLayerTableRecord
  2
3-線
 70
     0
 62
     4
  6
Continuous
370
    35
390
F
  0
LAYER
  5
40
330
2
100
AcDbSymbolTableRecord
100
AcDbLayerTableRecord
  2
4-線
 70
     0
 62
     2
  6
Continuous
370
    35
390
F
  0
LAYER
  5
41
330
2
100
AcDbSymbolTableRecord
100
AcDbLayerTableRecord
  2
5-線
 70
     0
 62
     5
  6
Continuous
370
    35
390
F
  0
LAYER
  5
42
330
2
100
AcDbSymbolTableRecord
100
AcDbLayerTableRecord
  2
5-破線
 70
     0
 62
     5
  6
HIDDEN2
370
    18
390
F
  0
LAYER
  5
43
330
2
100
AcDbSymbolTableRecord
100
AcDbLayerTableRecord
  2
6-線
 70
     0
 62
     1
  6
Continuous
370
    35
390
F
  0
LAYER
  5
44
330
2
100
AcDbSymbolTableRecord
100
AcDbLayerTableRecord
  2
6-破線
 70
     0
 62
     1
  6
HIDDEN2
370
    18
390
F
  0
LAYER
  5
FF
330
2
100
AcDbSymbolTableRecord
100
AcDbLayerTableRecord
  2
4
 70
     0
 62
     6
  6
Continuous
370
    18
390
F
  0
LAYER
  5
1DD
330
2
100
AcDbSymbolTableRecord
100
AcDbLayerTableRecord
  2
Defpoints
 70
     4
 62
     7
  6
Continuous
290
     0
370
    -3
390
F
  0
ENDTAB
  0
TABLE
  2
STYLE
  5
3
330
0
100
AcDbSymbolTable
 70
     3
  0
STYLE
  5
11
330
3
100
AcDbSymbolTableRecord
100
AcDbTextStyleTableRecord
  2
Standard
 70
     0
 40
0.0
 41
1.0
 50
0.0
 71
     0
 42
3.0
  3
txt.shx
  4
bigfont.shx
  0
STYLE
  5
2C
330
3
100
AcDbSymbolTableRecord
100
AcDbTextStyleTableRecord
  2

 70
     1
 40
0.0
 41
1.0
 50
0.0
 71
     0
 42
2.5
  3
ltypeshp.shx
  4

  0
STYLE
  5
9C
330
3
100
AcDbSymbolTableRecord
100
AcDbTextStyleTableRecord
  2
縦
 70
     4
 40
0.0
 41
1.0
 50
0.0
 71
     0
 42
2.799999999999998
  3
txt.shx
  4
bigfont.shx
  0
ENDTAB
  0
TABLE
  2
VIEW
  5
6
330
0
100
AcDbSymbolTable
 70
     1
  0
VIEW
  5
502
330
6
100
AcDbSymbolTableRecord
100
AcDbViewTableRecord
  2
OLE1
 70
     0
 40
233.3949522673788
 10
309.4656970073121
 20
48.01785105749138
 41
232.3911030103148
 11
0.0
 21
0.0
 31
1.0
 12
0.0
 22
0.0
 32
0.0
 42
50.0
 43
0.0
 44
0.0
 50
0.0
 71
     0
281
     0
 72
     0
  0
ENDTAB
  0
TABLE
  2
UCS
  5
7
330
0
100
AcDbSymbolTable
 70
     0
  0
ENDTAB
  0
TABLE
  2
APPID
  5
9
330
0
100
AcDbSymbolTable
 70
     1
  0
APPID
  5
12
330
9
100
AcDbSymbolTableRecord
100
AcDbRegAppTableRecord
  2
ACAD
 70
     0
  0
ENDTAB
  0
TABLE
  2
DIMSTYLE
  5
A
330
0
100
AcDbSymbolTable
 70
     3
100
AcDbDimStyleTable
 71
     1
340
1C8
  0
DIMSTYLE
105
27
330
A
100
AcDbSymbolTableRecord
100
AcDbDimStyleTableRecord
  2
ISO-25
 70
     0
 41
2.5
 42
0.625
 43
3.75
 44
1.25
 73
     0
 74
     0
 77
     1
 78
     8
140
2.5
141
2.5
143
0.03937007874016
147
0.625
171
     3
172
     1
271
     2
272
     2
274
     3
283
     0
284
     8
340
11
  0
DIMSTYLE
105
100
330
A
100
AcDbSymbolTableRecord
100
AcDbDimStyleTableRecord
  2
JIS
 70
     0
 41
2.5
 42
1.0
 43
7.0
 44
1.0
 73
     0
 74
     0
 77
     1
 78
     8
140
2.5
141
0.0
143
0.0394
147
0.0
172
     1
174
     1
175
     1
340
11
  0
DIMSTYLE
105
1C8
330
A
100
AcDbSymbolTableRecord
100
AcDbDimStyleTableRecord
  2
Kyouwa
 70
     0
 41
2.5
 42
0.0
 43
3.75
 44
1.0
 73
     0
 74
     0
 77
     1
 78
     8
140
3.0
141
0.0
143
0.1
146
0.7
147
1.0
171
     3
172
     1
271
     2
272
     2
274
     3
283
     0
284
     8
340
11
341
1C2
342
1C2
  0
ENDTAB
  0
TABLE
  2
BLOCK_RECORD
  5
1
330
0
100
AcDbSymbolTable
 70
    24
  0
BLOCK_RECORD
  5
1F
102
{ACAD_XDICTIONARY
360
474
102
}
330
1
100
AcDbSymbolTableRecord
100
AcDbBlockTableRecord
  2
*Model_Space
340
22
  0
BLOCK_RECORD
  5
1B
102
{ACAD_XDICTIONARY
360
476
102
}
330
1
100
AcDbSymbolTableRecord
100
AcDbBlockTableRecord
  2
*Paper_Space
340
1E
  0
BLOCK_RECORD
  5
23
102
{ACAD_XDICTIONARY
360
478
102
}
330
1
100
AcDbSymbolTableRecord
100
AcDbBlockTableRecord
  2
*Paper_Space0
340
26
  0
BLOCK_RECORD
  5
101
330
1
100
AcDbSymbolTableRecord
100
AcDbBlockTableRecord
  2
A$C77221E2E
340
0
  0
BLOCK_RECORD
  5
1C2
330
1
100
AcDbSymbolTableRecord
100
AcDbBlockTableRecord
  2
_Open30
340
0
102
{BLKREFS
331
376E
331
376F
331
3777
331
3778
331
3780
331
3781
331
3789
331
378A
331
3792
331
3793
331
37B8
331
37B9
331
37C1
331
37C2
331
37CA
331
37CB
331
37D3
331
37D4
331
37DC
331
37DD
331
38E7
331
38E8
331
393B
331
393C
331
3983
331
3984
331
3990
331
3991
331
399E
331
399F
331
39AC
331
39AD
331
39C8
331
39C9
331
39D3
331
39D4
102
}
  0
BLOCK_RECORD
  5
504
330
1
100
AcDbSymbolTableRecord
100
AcDbBlockTableRecord
  2
A$C56C037E7
340
0
  0
BLOCK_RECORD
  5
1BF1
330
1
100
AcDbSymbolTableRecord
100
AcDbBlockTableRecord
  2
A$C313832AB
340
0
  0
BLOCK_RECORD
  5
1F5E
330
1
100
AcDbSymbolTableRecord
100
AcDbBlockTableRecord
  2
A$C1D0B0400
340
0
  0
BLOCK_RECORD
  5
28EE
330
1
100
AcDbSymbolTableRecord
100
AcDbBlockTableRecord
  2
*D6
340
0
  0
BLOCK_RECORD
  5
296D
330
1
100
AcDbSymbolTableRecord
100
AcDbBlockTableRecord
  2
*D7
340
0
  0
BLOCK_RECORD
  5
29E7
330
1
100
AcDbSymbolTableRecord
100
AcDbBlockTableRecord
  2
*D8
340
0
  0
BLOCK_RECORD
  5
29F3
330
1
100
AcDbSymbolTableRecord
100
AcDbBlockTableRecord
  2
*D9
340
0
  0
BLOCK_RECORD
  5
29FF
330
1
100
AcDbSymbolTableRecord
100
AcDbBlockTableRecord
  2
*D10
340
0
  0
BLOCK_RECORD
  5
2A0B
330
1
100
AcDbSymbolTableRecord
100
AcDbBlockTableRecord
  2
*D11
340
0
  0
BLOCK_RECORD
  5
2A72
330
1
100
AcDbSymbolTableRecord
100
AcDbBlockTableRecord
  2
*D12
340
0
  0
BLOCK_RECORD
  5
2A7E
330
1
100
AcDbSymbolTableRecord
100
AcDbBlockTableRecord
  2
*D13
340
0
  0
BLOCK_RECORD
  5
2A8A
330
1
100
AcDbSymbolTableRecord
100
AcDbBlockTableRecord
  2
*D14
340
0
  0
BLOCK_RECORD
  5
36DC
330
1
100
AcDbSymbolTableRecord
100
AcDbBlockTableRecord
  2
*D15
340
0
  0
BLOCK_RECORD
  5
36E8
330
1
100
AcDbSymbolTableRecord
100
AcDbBlockTableRecord
  2
*D16
340
0
  0
BLOCK_RECORD
  5
36F6
330
1
100
AcDbSymbolTableRecord
100
AcDbBlockTableRecord
  2
*D17
340
0
  0
BLOCK_RECORD
  5
397F
330
1
100
AcDbSymbolTableRecord
100
AcDbBlockTableRecord
  2
*D18
340
0
  0
BLOCK_RECORD
  5
398C
330
1
100
AcDbSymbolTableRecord
100
AcDbBlockTableRecord
  2
*D19
340
0
  0
BLOCK_RECORD
  5
399A
330
1
100
AcDbSymbolTableRecord
100
AcDbBlockTableRecord
  2
*D20
340
0
  0
BLOCK_RECORD
  5
39A8
330
1
100
AcDbSymbolTableRecord
100
AcDbBlockTableRecord
  2
*D21
340
0
  0
BLOCK_RECORD
  5
39B7
330
1
100
AcDbSymbolTableRecord
100
AcDbBlockTableRecord
  2
*D22
340
0
  0
BLOCK_RECORD
  5
39C4
330
1
100
AcDbSymbolTableRecord
100
AcDbBlockTableRecord
  2
*D23
340
0
  0
ENDTAB
  0
ENDSEC
  0
SECTION
  2
BLOCKS
  0
BLOCK
  5
20
330
1F
100
AcDbEntity
  8
0
100
AcDbBlockBegin
  2
*Model_Space
 70
     0
 10
0.0
 20
0.0
 30
0.0
  3
*Model_Space
  1

  0
ENDBLK
  5
21
330
1F
100
AcDbEntity
  8
0
100
AcDbBlockEnd
  0
BLOCK
  5
1C
330
1B
100
AcDbEntity
 67
     1
  8
0
100
AcDbBlockBegin
  2
*Paper_Space
 70
     0
 10
0.0
 20
0.0
 30
0.0
  3
*Paper_Space
  1

  0
ENDBLK
  5
1D
330
1B
100
AcDbEntity
 67
     1
  8
0
100
AcDbBlockEnd
  0
BLOCK
  5
24
330
23
100
AcDbEntity
  8
0
100
AcDbBlockBegin
  2
*Paper_Space0
 70
     0
 10
0.0
 20
0.0
 30
0.0
  3
*Paper_Space0
  1

  0
ENDBLK
  5
25
330
23
100
AcDbEntity
  8
0
100
AcDbBlockEnd
  0
BLOCK
  5
10C
330
101
100
AcDbEntity
  8
0
100
AcDbBlockBegin
  2
A$C77221E2E
 70
     0
 10
0.0
 20
0.0
 30
0.0
  3
A$C77221E2E
  1

  0
TEXT
  5
102
330
101
100
AcDbEntity
  8
4
  6
CENTER
100
AcDbText
 10
-1.383100251097403
 20
-4.957558222773965
 30
0.0
 40
5.5
  1
0
 50
90.0
100
AcDbText
  0
TEXT
  5
103
330
101
100
AcDbEntity
  8
4
  6
CENTER
100
AcDbText
 10
-1.383100251097403
 20
-10.95755822277397
 30
0.0
 40
5.5
  1
9
 50
90.0
100
AcDbText
  0
TEXT
  5
104
330
101
100
AcDbEntity
  8
4
  6
CENTER
100
AcDbText
 10
-1.383100251097403
 20
-16.95755822277397
 30
0.0
 40
5.5
  1
8
 50
90.0
100
AcDbText
  0
TEXT
  5
105
330
101
100
AcDbEntity
  8
4
  6
CENTER
100
AcDbText
 10
-1.383100251097403
 20
-22.95755822277397
 30
0.0
 40
5.5
  1
7
 50
90.0
100
AcDbText
  0
TEXT
  5
106
330
101
100
AcDbEntity
  8
4
  6
CENTER
100
AcDbText
 10
-1.383100251097403
 20
-28.95755822277397
 30
0.0
 40
5.5
  1
6
 50
90.0
100
AcDbText
  0
TEXT
  5
107
330
101
100
AcDbEntity
  8
4
  6
CENTER
100
AcDbText
 10
-1.383100251097403
 20
-34.95755822277397
 30
0.0
 40
5.5
  1
5
 50
90.0
100
AcDbText
  0
TEXT
  5
108
330
101
100
AcDbEntity
  8
4
  6
CENTER
100
AcDbText
 10
-1.383100251097403
 20
-40.95755822277395
 30
0.0
 40
5.5
  1
4
 50
90.0
100
AcDbText
  0
TEXT
  5
109
330
101
100
AcDbEntity
  8
4
  6
CENTER
100
AcDbText
 10
-1.383100251097403
 20
-46.95755822277397
 30
0.0
 40
5.5
  1
3
 50
90.0
100
AcDbText
  0
TEXT
  5
10A
330
101
100
AcDbEntity
  8
4
  6
CENTER
100
AcDbText
 10
-1.383100251097403
 20
-52.95755822277397
 30
0.0
 40
5.5
  1
2
 50
90.0
100
AcDbText
  0
TEXT
  5
10B
330
101
100
AcDbEntity
  8
4
  6
CENTER
100
AcDbText
 10
-1.383100251097403
 20
-58.95755822277397
 30
0.0
 40
5.5
  1
1
 50
90.0
100
AcDbText
  0
ENDBLK
  5
10D
330
101
100
AcDbEntity
  8
0
100
AcDbBlockEnd
  0
BLOCK
  5
1C6
330
1C2
100
AcDbEntity
  8
0
100
AcDbBlockBegin
  2
_Open30
 70
     0
 10
0.0
 20
0.0
 30
0.0
  3
_Open30
  1

  0
LINE
  5
1C3
330
1C2
100
AcDbEntity
  8
0
  6
ByBlock
 62
     0
370
    -2
100
AcDbLine
 10
-1.0
 20
0.26794919
 30
0.0
 11
0.0
 21
0.0
 31
0.0
  0
LINE
  5
1C4
330
1C2
100
AcDbEntity
  8
0
  6
ByBlock
 62
     0
370
    -2
100
AcDbLine
 10
0.0
 20
0.0
 30
0.0
 11
-1.0
 21
-0.26794919
 31
0.0
  0
LINE
  5
1C5
330
1C2
100
AcDbEntity
  8
0
  6
ByBlock
 62
     0
370
    -2
100
AcDbLine
 10
0.0
 20
0.0
 30
0.0
 11
-1.0
 21
0.0
 31
0.0
  0
ENDBLK
  5
1C7
330
1C2
100
AcDbEntity
  8
0
100
AcDbBlockEnd
  0
BLOCK
  5
5AA
330
504
100
AcDbEntity
  8
0
100
AcDbBlockBegin
  2
A$C56C037E7
 70
     0
 10
0.0
 20
0.0
 30
0.0
  3
A$C56C037E7
  1

  0
LINE
  5
505
330
504
100
AcDbEntity
  8
0
100
AcDbLine
 10
420.0
 20
0.0
 30
0.0
 11
410.0
 21
0.0
 31
0.0
  0
LINE
  5
506
330
504
100
AcDbEntity
  8
0
100
AcDbLine
 10
0.0
 20
297.0
 30
0.0
 11
0.0
 21
287.0
 31
0.0
  0
LINE
  5
507
330
504
100
AcDbEntity
  8
0
100
AcDbLine
 10
420.0
 20
297.0
 30
0.0
 11
420.0
 21
287.0
 31
0.0
  0
LINE
  5
508
330
504
100
AcDbEntity
  8
0
100
AcDbLine
 10
0.0
 20
297.0
 30
0.0
 11
25.0
 21
297.0
 31
0.0
  0
LINE
  5
509
330
504
100
AcDbEntity
  8
3-線
 62
     4
100
AcDbLine
 10
26.0
 20
287.0
 30
0.0
 11
410.0
 21
287.0
 31
0.0
  0
LINE
  5
50A
330
504
100
AcDbEntity
  8
3-線
100
AcDbLine
 10
26.0
 20
287.0
 30
0.0
 11
26.0
 21
10.0
 31
0.0
  0
LINE
  5
50B
330
504
100
AcDbEntity
  8
3-線
100
AcDbLine
 10
26.0
 20
10.0
 30
0.0
 11
410.0
 21
10.0
 31
0.0
  0
LINE
  5
50C
330
504
100
AcDbEntity
  8
3-線
100
AcDbLine
 10
410.0
 20
287.0
 30
0.0
 11
410.0
 21
10.0
 31
0.0
  0
LINE
  5
50D
330
504
100
AcDbEntity
  8
0
100
AcDbLine
 10
410.0
 20
297.0
 30
0.0
 11
420.0
 21
297.0
 31
0.0
  0
LINE
  5
50E
330
504
100
AcDbEntity
  8
0
100
AcDbLine
 10
420.0
 20
10.0
 30
0.0
 11
420.0
 21
0.0
 31
0.0
  0
LINE
  5
50F
330
504
100
AcDbEntity
  8
0
100
AcDbLine
 10
15.0
 20
0.0
 30
0.0
 11
0.0
 21
0.0
 31
0.0
  0
LINE
  5
510
330
504
100
AcDbEntity
  8
0
100
AcDbLine
 10
0.0
 20
10.0
 30
0.0
 11
0.0
 21
0.0
 31
0.0
  0
LINE
  5
511
330
504
100
AcDbEntity
  8
3-線
 62
     4
100
AcDbLine
 10
364.0
 20
254.5
 30
0.0
 11
410.0
 21
254.5
 31
0.0
  0
LINE
  5
512
330
504
100
AcDbEntity
  8
3-線
100
AcDbLine
 10
364.0
 20
287.0
 30
0.0
 11
364.0
 21
254.5
 31
0.0
  0
LINE
  5
513
330
504
100
AcDbEntity
  8
3-線
100
AcDbLine
 10
402.0
 20
254.5
 30
0.0
 11
402.0
 21
194.5
 31
0.0
  0
LINE
  5
514
330
504
100
AcDbEntity
  8
3-線
 62
     4
100
AcDbLine
 10
402.0
 20
194.5
 30
0.0
 11
410.0
 21
194.5
 31
0.0
  0
LINE
  5
515
330
504
100
AcDbEntity
  8
3-線
 62
     4
100
AcDbLine
 10
402.0
 20
200.5
 30
0.0
 11
410.0
 21
200.5
 31
0.0
  0
LINE
  5
516
330
504
100
AcDbEntity
  8
3-線
 62
     4
100
AcDbLine
 10
402.0
 20
206.5
 30
0.0
 11
410.0
 21
206.5
 31
0.0
  0
LINE
  5
517
330
504
100
AcDbEntity
  8
3-線
 62
     4
100
AcDbLine
 10
402.0
 20
212.5
 30
0.0
 11
410.0
 21
212.5
 31
0.0
  0
LINE
  5
518
330
504
100
AcDbEntity
  8
3-線
 62
     4
100
AcDbLine
 10
402.0
 20
218.5
 30
0.0
 11
410.0
 21
218.5
 31
0.0
  0
LINE
  5
519
330
504
100
AcDbEntity
  8
3-線
 62
     4
100
AcDbLine
 10
402.0
 20
224.5
 30
0.0
 11
410.0
 21
224.5
 31
0.0
  0
LINE
  5
51A
330
504
100
AcDbEntity
  8
3-線
 62
     4
100
AcDbLine
 10
402.0
 20
230.5
 30
0.0
 11
410.0
 21
230.5
 31
0.0
  0
LINE
  5
51B
330
504
100
AcDbEntity
  8
3-線
 62
     4
100
AcDbLine
 10
402.0
 20
236.5
 30
0.0
 11
410.0
 21
236.5
 31
0.0
  0
LINE
  5
51C
330
504
100
AcDbEntity
  8
3-線
 62
     4
100
AcDbLine
 10
402.0
 20
242.5
 30
0.0
 11
410.0
 21
242.5
 31
0.0
  0
LINE
  5
51D
330
504
100
AcDbEntity
  8
3-線
 62
     4
100
AcDbLine
 10
402.0
 20
248.5
 30
0.0
 11
410.0
 21
248.5
 31
0.0
  0
LINE
  5
51E
330
504
100
AcDbEntity
  8
2-線
100
AcDbLine
 10
370.0
 20
287.0
 30
0.0
 11
370.0
 21
254.5
 31
0.0
  0
LINE
  5
51F
330
504
100
AcDbEntity
  8
2-線
100
AcDbLine
 10
397.8
 20
287.0
 30
0.0
 11
397.8
 21
254.5
 31
0.0
  0
LINE
  5
520
330
504
100
AcDbEntity
  8
2-線
100
AcDbLine
 10
370.0
 20
280.05
 30
0.0
 11
410.0
 21
280.05
 31
0.0
  0
LINE
  5
521
330
504
100
AcDbEntity
  8
2-線
100
AcDbLine
 10
41.0
 20
287.0
 30
0.0
 11
41.0
 21
269.0
 31
0.0
  0
LINE
  5
522
330
504
100
AcDbEntity
  8
2-線
100
AcDbLine
 10
81.0
 20
287.0
 30
0.0
 11
81.0
 21
269.0
 31
0.0
  0
LINE
  5
523
330
504
100
AcDbEntity
  8
2-線
100
AcDbLine
 10
26.0
 20
269.0
 30
0.0
 11
136.0
 21
269.0
 31
0.0
  0
LINE
  5
524
330
504
100
AcDbEntity
  8
2-線
100
AcDbLine
 10
96.0
 20
287.0
 30
0.0
 11
96.0
 21
269.0
 31
0.0
  0
LINE
  5
525
330
504
100
AcDbEntity
  8
2-線
100
AcDbLine
 10
136.0
 20
287.0
 30
0.0
 11
136.0
 21
269.0
 31
0.0
  0
LINE
  5
526
330
504
100
AcDbEntity
  8
2-線
100
AcDbLine
 10
36.0
 20
22.0
 30
0.0
 11
36.0
 21
10.0
 31
0.0
  0
LINE
  5
527
330
504
100
AcDbEntity
  8
2-線
100
AcDbLine
 10
51.0
 20
22.0
 30
0.0
 11
51.0
 21
10.0
 31
0.0
  0
LINE
  5
528
330
504
100
AcDbEntity
  8
2-線
100
AcDbLine
 10
61.0
 20
22.0
 30
0.0
 11
61.0
 21
10.0
 31
0.0
  0
LINE
  5
529
330
504
100
AcDbEntity
  8
2-線
100
AcDbLine
 10
111.0
 20
22.0
 30
0.0
 11
111.0
 21
10.0
 31
0.0
  0
LINE
  5
52A
330
504
100
AcDbEntity
  8
2-線
100
AcDbLine
 10
26.0
 20
16.0
 30
0.0
 11
111.0
 21
16.0
 31
0.0
  0
LINE
  5
52B
330
504
100
AcDbEntity
  8
2-線
100
AcDbLine
 10
26.0
 20
22.0
 30
0.0
 11
111.0
 21
22.0
 31
0.0
  0
LINE
  5
52C
330
504
100
AcDbEntity
  8
2-線
100
AcDbLine
 10
207.0
 20
22.0
 30
0.0
 11
410.0
 21
22.0
 31
0.0
  0
LINE
  5
52D
330
504
100
AcDbEntity
  8
2-線
100
AcDbLine
 10
207.0
 20
34.0
 30
0.0
 11
410.0
 21
34.0
 31
0.0
  0
LINE
  5
52E
330
504
100
AcDbEntity
  8
2-線
100
AcDbLine
 10
247.0
 20
40.0
 30
0.0
 11
410.0
 21
40.0
 31
0.0
  0
LINE
  5
52F
330
504
100
AcDbEntity
  8
2-線
100
AcDbLine
 10
247.0
 20
46.0
 30
0.0
 11
410.0
 21
46.0
 31
0.0
  0
LINE
  5
530
330
504
100
AcDbEntity
  8
2-線
100
AcDbLine
 10
247.0
 20
76.0
 30
0.0
 11
247.0
 21
34.0
 31
0.0
  0
LINE
  5
531
330
504
100
AcDbEntity
  8
2-線
100
AcDbLine
 10
280.0
 20
34.0
 30
0.0
 11
280.0
 21
22.0
 31
0.0
  0
LINE
  5
532
330
504
100
AcDbEntity
  8
2-線
100
AcDbLine
 10
295.0
 20
34.0
 30
0.0
 11
295.0
 21
10.0
 31
0.0
  0
LINE
  5
533
330
504
100
AcDbEntity
  8
2-線
100
AcDbLine
 10
300.0
 20
34.0
 30
0.0
 11
300.0
 21
10.0
 31
0.0
  0
LINE
  5
534
330
504
100
AcDbEntity
  8
2-線
100
AcDbLine
 10
257.0
 20
76.0
 30
0.0
 11
257.0
 21
34.0
 31
0.0
  0
LINE
  5
535
330
504
100
AcDbEntity
  8
2-線
100
AcDbLine
 10
345.0
 20
34.0
 30
0.0
 11
345.0
 21
10.0
 31
0.0
  0
LINE
  5
536
330
504
100
AcDbEntity
  8
2-線
100
AcDbLine
 10
350.0
 20
34.0
 30
0.0
 11
350.0
 21
10.0
 31
0.0
  0
LINE
  5
537
330
504
100
AcDbEntity
  8
2-線
100
AcDbLine
 10
307.0
 20
76.0
 30
0.0
 11
307.0
 21
34.0
 31
0.0
  0
LINE
  5
538
330
504
100
AcDbEntity
  8
2-線
100
AcDbLine
 10
340.0
 20
76.00000000000003
 30
0.0
 11
340.0
 21
34.0
 31
0.0
  0
LINE
  5
539
330
504
100
AcDbEntity
  8
2-線
100
AcDbLine
 10
355.0
 20
76.0
 30
0.0
 11
355.0
 21
34.0
 31
0.0
  0
LINE
  5
53A
330
504
100
AcDbEntity
  8
2-線
100
AcDbLine
 10
375.0
 20
76.00000000000003
 30
0.0
 11
375.0
 21
34.0
 31
0.0
  0
TEXT
  5
53B
330
504
100
AcDbEntity
  8
2-線
100
AcDbText
 10
367.0
 20
285.59
 30
0.0
 40
2.799999999999998
  1
削り加工部一般公差
 41
1.199999999999999
  7
縦
 72
     4
 11
367.0
 21
270.75
 31
0.0
100
AcDbText
  0
TEXT
  5
53C
330
504
100
AcDbEntity
  8
2-線
100
AcDbText
 10
372.676
 20
284.1125000000001
 30
0.0
 40
2.299999999999998
  1
呼び寸法ノ区分
 41
1.199999999999999
 72
     4
 11
383.9
 21
285.2625000000001
 31
0.0
100
AcDbText
  0
TEXT
  5
53D
330
504
100
AcDbEntity
  8
2-線
100
AcDbText
 10
374.424
 20
280.6375
 30
0.0
 40
2.299999999999998
  1
単位　　ｍｍ
 41
1.199999999999999
 72
     4
 11
383.9
 21
281.7875
 31
0.0
100
AcDbText
  0
TEXT
  5
53E
330
504
100
AcDbEntity
  8
2-線
100
AcDbText
 10
401.2166666666665
 20
284.1125000000001
 30
0.0
 40
2.299999999999998
  1
JIS
 72
     4
 11
403.8999999999998
 21
285.2625000000001
 31
0.0
100
AcDbText
  0
TEXT
  5
53F
330
504
100
AcDbEntity
  8
2-線
100
AcDbText
 10
398.7633333333332
 20
280.6375
 30
0.0
 40
2.299999999999998
  1
（中級）
 72
     4
 11
403.8999999999998
 21
281.7875
 31
0.0
100
AcDbText
  0
TEXT
  5
540
330
504
100
AcDbEntity
  8
2-線
100
AcDbText
 10
370.5
 20
255.175
 30
0.0
 40
2.299999999999998
  1
１０００を超え２０００以下
 41
0.75
 11
370.5
 21
256.325
 31
0.0
100
AcDbText
 73
     2
  0
TEXT
  5
541
330
504
100
AcDbEntity
  8
2-線
100
AcDbText
 10
399.2079999999999
 20
255.175
 30
0.0
 40
2.299999999999998
  1
±１．２
 41
0.9
 72
     1
 11
403.8999999999998
 21
256.325
 31
0.0
100
AcDbText
 73
     2
  0
TEXT
  5
542
330
504
100
AcDbEntity
  8
2-線
100
AcDbText
 10
408.75
 20
250.125
 30
0.0
 40
5.5
  1
0
 50
90.0
 72
     4
 11
406.0
 21
251.5
 31
0.0
100
AcDbText
  0
TEXT
  5
543
330
504
100
AcDbEntity
  8
2-線
100
AcDbText
 10
408.75
 20
243.6666666666666
 30
0.0
 40
5.5
  1
9
 50
90.0
 72
     4
 11
406.0
 21
245.5
 31
0.0
100
AcDbText
  0
TEXT
  5
544
330
504
100
AcDbEntity
  8
2-線
100
AcDbText
 10
408.75
 20
237.6666666666666
 30
0.0
 40
5.5
  1
8
 50
90.0
 72
     4
 11
406.0
 21
239.5
 31
0.0
100
AcDbText
  0
TEXT
  5
545
330
504
100
AcDbEntity
  8
2-線
100
AcDbText
 10
408.75
 20
231.6666666666666
 30
0.0
 40
5.5
  1
7
 50
90.0
 72
     4
 11
406.0
 21
233.5
 31
0.0
100
AcDbText
  0
TEXT
  5
546
330
504
100
AcDbEntity
  8
2-線
100
AcDbText
 10
408.75
 20
225.6666666666667
 30
0.0
 40
5.5
  1
6
 50
90.0
 72
     4
 11
406.0
 21
227.5
 31
0.0
100
AcDbText
  0
TEXT
  5
547
330
504
100
AcDbEntity
  8
2-線
100
AcDbText
 10
408.75
 20
219.6666666666667
 30
0.0
 40
5.5
  1
5
 50
90.0
 72
     4
 11
406.0
 21
221.5
 31
0.0
100
AcDbText
  0
TEXT
  5
548
330
504
100
AcDbEntity
  8
2-線
100
AcDbText
 10
408.75
 20
213.6666666666667
 30
0.0
 40
5.5
  1
4
 50
90.0
 72
     4
 11
406.0
 21
215.5
 31
0.0
100
AcDbText
  0
TEXT
  5
549
330
504
100
AcDbEntity
  8
2-線
100
AcDbText
 10
408.75
 20
207.6666666666667
 30
0.0
 40
5.5
  1
3
 50
90.0
 72
     4
 11
406.0
 21
209.5
 31
0.0
100
AcDbText
  0
TEXT
  5
54A
330
504
100
AcDbEntity
  8
2-線
100
AcDbText
 10
408.75
 20
201.6666666666667
 30
0.0
 40
5.5
  1
2
 50
90.0
 72
     4
 11
406.0
 21
203.5
 31
0.0
100
AcDbText
  0
TEXT
  5
54B
330
504
100
AcDbEntity
  8
2-線
100
AcDbText
 10
408.75
 20
196.5833333333333
 30
0.0
 40
5.5
  1
1
 50
90.0
 72
     4
 11
406.0
 21
197.5
 31
0.0
100
AcDbText
  0
TEXT
  5
54C
330
504
100
AcDbEntity
  8
2-線
100
AcDbText
 10
31.63333333333333
 20
280.5000000000001
 30
0.0
 40
4.0
  1
熱
 72
     4
 11
33.5
 21
282.5000000000001
 31
0.0
100
AcDbText
  0
TEXT
  5
54D
330
504
100
AcDbEntity
  8
2-線
100
AcDbText
 10
28.63333333333333
 20
271.5000000000001
 30
0.0
 40
4.0
  1
処
 72
     4
 11
30.5
 21
273.5000000000001
 31
0.0
100
AcDbText
  0
TEXT
  5
54E
330
504
100
AcDbEntity
  8
2-線
100
AcDbText
 10
34.63333333333333
 20
271.6333333333334
 30
0.0
 40
4.0
  1
理
 72
     4
 11
36.5
 21
273.5000000000001
 31
0.0
100
AcDbText
  0
TEXT
  5
54F
330
504
100
AcDbEntity
  8
2-線
100
AcDbText
 10
83.63333333333335
 20
271.5000000000001
 30
0.0
 40
4.0
  1
処
 72
     4
 11
85.5
 21
273.5000000000001
 31
0.0
100
AcDbText
  0
TEXT
  5
550
330
504
100
AcDbEntity
  8
2-線
100
AcDbText
 10
89.63333333333334
 20
271.6333333333334
 30
0.0
 40
4.0
  1
理
 72
     4
 11
91.5
 21
273.5000000000001
 31
0.0
100
AcDbText
  0
TEXT
  5
551
330
504
100
AcDbEntity
  8
2-線
100
AcDbText
 10
83.63333333333335
 20
280.4999999999999
 30
0.0
 40
4.0
  1
表
 72
     4
 11
85.50000000000002
 21
282.4999999999999
 31
0.0
100
AcDbText
  0
TEXT
  5
552
330
504
100
AcDbEntity
  8
2-線
100
AcDbText
 10
89.63333333333338
 20
280.6333333333332
 30
0.0
 40
4.0
  1
面
 72
     4
 11
91.50000000000003
 21
282.4999999999999
 31
0.0
100
AcDbText
  0
TEXT
  5
553
330
504
100
AcDbEntity
  8
2-線
100
AcDbText
 10
27.8
 20
11.5
 30
0.0
 40
3.0
  1
符号
 72
     4
 11
31.0
 21
13.0
 31
0.0
100
AcDbText
  0
TEXT
  5
554
330
504
100
AcDbEntity
  8
2-線
100
AcDbText
 10
38.7
 20
11.5
 30
0.0
 40
3.0
  1
年月日
 72
     4
 11
43.5
 21
13.0
 31
0.0
100
AcDbText
  0
TEXT
  5
555
330
504
100
AcDbEntity
  8
2-線
100
AcDbText
 10
52.9
 20
11.5
 30
0.0
 40
3.0
  1
担当
 72
     4
 11
56.0
 21
13.0
 31
0.0
100
AcDbText
  0
TEXT
  5
556
330
504
100
AcDbEntity
  8
2-線
100
AcDbText
 10
73.79999999999999
 20
11.5
 30
0.0
 40
3.0
  1
改　正　記　事
 72
     4
 11
86.0
 21
13.0
 31
0.0
100
AcDbText
  0
TEXT
  5
557
330
504
100
AcDbEntity
  8
3-線
100
AcDbText
 10
213.4333333333334
 20
12.5
 30
0.0
 40
7.0
  1
協和工業株式会社
 41
1.149999999999999
 72
     4
 11
251.0
 21
16.0
 31
0.0
100
AcDbText
  0
TEXT
  5
558
330
504
100
AcDbEntity
  8
2-線
100
AcDbText
 10
248.08
 20
29.6
 30
0.0
 40
3.0
  1
Ｍ．Ｙ
 41
0.8
 72
     4
 11
252.0
 21
31.0
 31
0.0
100
AcDbText
  0
TEXT
  5
559
330
504
100
AcDbEntity
  8
2-線
100
AcDbText
 10
246.56
 20
23.6
 30
0.0
 40
3.0
  1
０１，０８，０１
 41
0.4
 72
     4
 11
252.0
 21
25.0
 31
0.0
100
AcDbText
  0
TEXT
  5
55A
330
504
100
AcDbEntity
  8
2-線
100
AcDbText
 10
265.8
 20
26.0
 30
0.0
 40
4.0
  1
1:1
 41
1.199999999999999
 72
     4
 11
269.0
 21
28.0
 31
0.0
100
AcDbText
  0
TEXT
  5
55B
330
504
100
AcDbEntity
  8
2-線
100
AcDbText
 10
282.5
 20
26.5
 30
0.0
 40
3.0
  1
三角法
 72
     4
 11
287.5
 21
28.0
 31
0.0
100
AcDbText
  0
TEXT
  5
55C
330
504
100
AcDbEntity
  8
2-線
100
AcDbText
 10
247.9
 20
35.6
 30
0.0
 40
3.0
  1
Ｎｏ．
 72
     4
 11
252.0
 21
37.0
 31
0.0
100
AcDbText
  0
LINE
  5
55D
330
504
100
AcDbEntity
  8
2-線
100
AcDbLine
 10
275.0
 20
34.0
 30
0.0
 11
275.0
 21
22.0
 31
0.0
  0
LINE
  5
55E
330
504
100
AcDbEntity
  8
2-線
100
AcDbLine
 10
263.0
 20
34.0
 30
0.0
 11
263.0
 21
22.0
 31
0.0
  0
LINE
  5
55F
330
504
100
AcDbEntity
  8
2-線
100
AcDbLine
 10
258.0
 20
34.0
 30
0.0
 11
258.0
 21
22.0
 31
0.0
  0
LINE
  5
560
330
504
100
AcDbEntity
  8
2-線
100
AcDbLine
 10
246.0
 20
34.0
 30
0.0
 11
246.0
 21
22.0
 31
0.0
  0
LINE
  5
561
330
504
100
AcDbEntity
  8
2-線
100
AcDbLine
 10
241.0
 20
34.0
 30
0.0
 11
241.0
 21
22.0
 31
0.0
  0
LINE
  5
562
330
504
100
AcDbEntity
  8
2-線
100
AcDbLine
 10
229.0
 20
34.0
 30
0.0
 11
229.0
 21
22.0
 31
0.0
  0
LINE
  5
563
330
504
100
AcDbEntity
  8
2-線
100
AcDbLine
 10
224.0
 20
34.0
 30
0.0
 11
224.0
 21
22.0
 31
0.0
  0
LINE
  5
564
330
504
100
AcDbEntity
  8
2-線
100
AcDbLine
 10
212.0
 20
34.0
 30
0.0
 11
212.0
 21
22.0
 31
0.0
  0
LINE
  5
565
330
504
100
AcDbEntity
  8
2-線
100
AcDbLine
 10
207.0
 20
34.0
 30
0.0
 11
207.0
 21
10.0
 31
0.0
  0
TEXT
  5
566
330
504
100
AcDbEntity
  8
2-線
100
AcDbText
 10
302.0
 20
26.25
 30
0.0
 40
3.5
  1
  トキコ（株）   殿
 11
302.0
 21
28.0
 31
0.0
100
AcDbText
 73
     2
  0
TEXT
  5
567
330
504
100
AcDbEntity
  8
2-線
100
AcDbText
 10
273.3
 20
35.5
 30
0.0
 40
3.0
  1
図　　　番
 72
     4
 11
282.0
 21
37.0
 31
0.0
100
AcDbText
  0
TEXT
  5
568
330
504
100
AcDbEntity
  8
2-線
100
AcDbText
 10
316.8
 20
35.5
 30
0.0
 40
3.0
  1
品　　名
 72
     4
 11
323.5
 21
37.0
 31
0.0
100
AcDbText
  0
TEXT
  5
569
330
504
100
AcDbEntity
  8
2-線
100
AcDbText
 10
344.3
 20
35.5
 30
0.0
 40
3.0
  1
個数
 72
     4
 11
347.5
 21
37.0
 31
0.0
100
AcDbText
  0
TEXT
  5
56A
330
504
100
AcDbEntity
  8
2-線
100
AcDbText
 10
360.0
 20
35.5
 30
0.0
 40
3.0
  1
材　質
 72
     4
 11
365.0
 21
37.0
 31
0.0
100
AcDbText
  0
TEXT
  5
56B
330
504
100
AcDbEntity
  8
2-線
100
AcDbText
 10
383.9
 20
35.5
 30
0.0
 40
3.0
  1
備　　　考
 72
     4
 11
392.5
 21
37.0
 31
0.0
100
AcDbText
  0
TEXT
  5
56C
330
504
100
AcDbEntity
  8
2-線
100
AcDbText
 10
352.0
 20
29.25
 30
0.0
 40
3.5
  1
 ８型　中間軸付き
 11
352.0
 21
31.0
 31
0.0
100
AcDbText
 73
     2
  0
TEXT
  5
56D
330
504
100
AcDbEntity
  8
2-線
100
AcDbText
 10
352.0
 20
23.25
 30
0.0
 40
3.5
  1
ユニバーサル･ジョイント
 11
352.0
 21
25.0
 31
0.0
100
AcDbText
 73
     2
  0
TEXT
  5
56E
330
504
100
AcDbEntity
  8
2-線
100
AcDbText
 10
352.0
 20
14.0
 30
0.0
 40
4.0
  1
ＳＰ－０８－００Ｃ－００
 41
0.85
 11
352.0
 21
16.0
 31
0.0
100
AcDbText
 73
     2
  0
TEXT
  5
56F
330
504
100
AcDbEntity
  8
2-線
100
AcDbText
 10
340.6
 20
41.5
 30
0.0
 40
3.0
  1
１ｓｅｔ
 72
     4
 11
347.5
 21
43.0
 31
0.0
100
AcDbText
  0
TEXT
  5
570
330
504
100
AcDbEntity
  8
2-線
100
AcDbText
 10
250.7
 20
41.5
 30
0.0
 40
3.0
  1
１
 72
     4
 11
252.0
 21
43.0
 31
0.0
100
AcDbText
  0
TEXT
  5
571
330
504
100
AcDbEntity
  8
2-線
100
AcDbText
 10
259.0
 20
41.5
 30
0.0
 40
3.0
  1
ＳＣ－０８－００Ｃ
 41
0.9
 11
259.0
 21
43.0
 31
0.0
100
AcDbText
 73
     2
  0
TEXT
  5
572
330
504
100
AcDbEntity
  8
2-線
100
AcDbText
 10
309.0
 20
41.5
 30
0.0
 40
3.0
  1
Ｕ．ジョイント
 41
0.9
 11
309.0
 21
43.0
 31
0.0
100
AcDbText
 73
     2
  0
TEXT
  5
573
330
504
100
AcDbEntity
  8
2-線
100
AcDbText
 10
357.0
 20
41.5
 30
0.0
 40
3.0
  1
ＳＣＭ４１５
 41
0.8
 11
357.0
 21
43.0
 31
0.0
100
AcDbText
 73
     2
  0
TEXT
  5
574
330
504
100
AcDbEntity
  8
2-線
100
AcDbText
 10
377.0
 20
41.5
 30
0.0
 40
3.0
  1
浸炭焼き入れ
 11
377.0
 21
43.0
 31
0.0
100
AcDbText
 73
     2
  0
TEXT
  5
575
330
504
100
AcDbEntity
  8
2-線
100
AcDbText
 10
277.5
 20
32.76
 30
0.0
 40
2.799999999999998
  1
投影法
 41
0.9
  7
縦
 72
     4
 11
277.5
 21
28.0
 31
0.0
100
AcDbText
  0
TEXT
  5
576
330
504
100
AcDbEntity
  8
2-線
100
AcDbText
 10
226.5
 20
32.76
 30
0.0
 40
2.799999999999998
  1
検　図
 41
0.9
  7
縦
 72
     4
 11
226.5
 21
28.0
 31
0.0
100
AcDbText
  0
TEXT
  5
577
330
504
100
AcDbEntity
  8
2-線
100
AcDbText
 10
243.5
 20
32.76
 30
0.0
 40
2.799999999999998
  1
製　図
 41
0.9
  7
縦
 72
     4
 11
243.5
 21
28.0
 31
0.0
100
AcDbText
  0
TEXT
  5
578
330
504
100
AcDbEntity
  8
2-線
100
AcDbText
 10
260.5
 20
32.85333333333333
 30
0.0
 40
2.799999999999998
  1
尺　度
 41
0.9
  7
縦
 72
     4
 11
260.5
 21
28.0
 31
0.0
100
AcDbText
  0
TEXT
  5
579
330
504
100
AcDbEntity
  8
2-線
100
AcDbText
 10
297.5
 20
32.76
 30
0.0
 40
2.799999999999998
  1
客　先
 41
0.9
  7
縦
 72
     4
 11
297.5
 21
28.0
 31
0.0
100
AcDbText
  0
TEXT
  5
57A
330
504
100
AcDbEntity
  8
2-線
100
AcDbText
 10
297.5
 20
20.76
 30
0.0
 40
2.799999999999998
  1
整　番
 41
0.9
  7
縦
 72
     4
 11
297.5
 21
16.0
 31
0.0
100
AcDbText
  0
TEXT
  5
57B
330
504
100
AcDbEntity
  8
2-線
100
AcDbText
 10
347.5
 20
32.76
 30
0.0
 40
2.799999999999998
  1
名　称
 41
0.9
  7
縦
 72
     4
 11
347.5
 21
28.0
 31
0.0
100
AcDbText
  0
TEXT
  5
57C
330
504
100
AcDbEntity
  8
2-線
100
AcDbText
 10
347.5
 20
20.85333333333333
 30
0.0
 40
2.799999999999998
  1
図　番
 41
0.9
  7
縦
 72
     4
 11
347.5
 21
16.0
 31
0.0
100
AcDbText
  0
TEXT
  5
57D
330
504
100
AcDbEntity
  8
2-線
100
AcDbText
 10
209.5
 20
32.76
 30
0.0
 40
2.799999999999998
  1
認　可
 41
0.9
  7
縦
 72
     4
 11
209.5
 21
28.0
 31
0.0
100
AcDbText
  0
LINE
  5
57E
330
504
100
AcDbEntity
  8
2-線
100
AcDbLine
 10
370.0
 20
283.525
 30
0.0
 11
410.0
 21
283.525
 31
0.0
  0
TEXT
  5
57F
330
504
100
AcDbEntity
  8
2-線
100
AcDbText
 10
399.2079999999999
 20
258.825
 30
0.0
 40
2.299999999999998
  1
±０．８
 41
0.9
 72
     1
 11
403.8999999999998
 21
259.975
 31
0.0
100
AcDbText
 73
     2
  0
TEXT
  5
580
330
504
100
AcDbEntity
  8
2-線
100
AcDbText
 10
399.2079999999999
 20
262.475
 30
0.0
 40
2.299999999999998
  1
±０．５
 41
0.9
 72
     1
 11
403.8999999999998
 21
263.6249999999999
 31
0.0
100
AcDbText
 73
     2
  0
TEXT
  5
581
330
504
100
AcDbEntity
  8
2-線
100
AcDbText
 10
399.2079999999999
 20
266.1249999999999
 30
0.0
 40
2.299999999999998
  1
±０．３
 41
0.9
 72
     1
 11
403.8999999999998
 21
267.2749999999999
 31
0.0
100
AcDbText
 73
     2
  0
TEXT
  5
582
330
504
100
AcDbEntity
  8
2-線
100
AcDbText
 10
399.2079999999999
 20
269.7749999999999
 30
0.0
 40
2.299999999999998
  1
±０．２
 41
0.9
 72
     1
 11
403.8999999999998
 21
270.9249999999999
 31
0.0
100
AcDbText
 73
     2
  0
TEXT
  5
583
330
504
100
AcDbEntity
  8
2-線
100
AcDbText
 10
399.4839999999999
 20
273.4249999999999
 30
0.0
 40
2.299999999999998
  1
±０．１
 41
0.9
 72
     1
 11
403.8999999999998
 21
274.5749999999999
 31
0.0
100
AcDbText
 73
     2
  0
TEXT
  5
584
330
504
100
AcDbEntity
  8
2-線
100
AcDbText
 10
399.4839999999999
 20
277.0749999999999
 30
0.0
 40
2.299999999999998
  1
±０．１
 41
0.9
 72
     1
 11
403.8999999999998
 21
278.2249999999999
 31
0.0
100
AcDbText
 73
     2
  0
TEXT
  5
585
330
504
100
AcDbEntity
  8
2-線
100
AcDbText
 10
370.5
 20
258.825
 30
0.0
 40
2.299999999999998
  1
　３１５を超え１０００以下
 41
0.75
 11
370.5
 21
259.975
 31
0.0
100
AcDbText
 73
     2
  0
TEXT
  5
586
330
504
100
AcDbEntity
  8
2-線
100
AcDbText
 10
370.5
 20
262.475
 30
0.0
 40
2.299999999999998
  1
　１２０を超え　３１５以下
 41
0.75
 11
370.5
 21
263.6249999999999
 31
0.0
100
AcDbText
 73
     2
  0
TEXT
  5
587
330
504
100
AcDbEntity
  8
2-線
100
AcDbText
 10
370.5
 20
266.1249999999999
 30
0.0
 40
2.299999999999998
  1
　　３０を超え　１２０以下
 41
0.75
 11
370.5
 21
267.2749999999999
 31
0.0
100
AcDbText
 73
     2
  0
TEXT
  5
588
330
504
100
AcDbEntity
  8
2-線
100
AcDbText
 10
370.5
 20
269.7749999999999
 30
0.0
 40
2.299999999999998
  1
　　　６を超え　　３０以下
 41
0.75
 11
370.5
 21
270.9249999999999
 31
0.0
100
AcDbText
 73
     2
  0
TEXT
  5
589
330
504
100
AcDbEntity
  8
2-線
100
AcDbText
 10
370.5
 20
273.4249999999999
 30
0.0
 40
2.299999999999998
  1
　　　３を超え　　　６以下
 41
0.75
 11
370.5
 21
274.5749999999999
 31
0.0
100
AcDbText
 73
     2
  0
TEXT
  5
58A
330
504
100
AcDbEntity
  8
2-線
100
AcDbText
 10
370.5
 20
277.0749999999999
 30
0.0
 40
2.299999999999998
  1
  ０．５を超え　　　３以下
 41
0.75
 11
370.5
 21
278.2249999999999
 31
0.0
100
AcDbText
 73
     2
  0
LINE
  5
58B
330
504
100
AcDbEntity
  8
2-線
100
AcDbLine
 10
247.0
 20
52.0
 30
0.0
 11
410.0
 21
52.0
 31
0.0
  0
TEXT
  5
58C
330
504
100
AcDbEntity
  8
2-線
100
AcDbText
 10
259.0
 20
47.5
 30
0.0
 40
3.0
  1
ＳＣ－０８－００Ｃ
 41
0.9
 11
259.0
 21
49.0
 31
0.0
100
AcDbText
 73
     2
  0
TEXT
  5
58D
330
504
100
AcDbEntity
  8
2-線
100
AcDbText
 10
250.6
 20
47.5
 30
0.0
 40
3.0
  1
２
 72
     4
 11
252.0
 21
49.0
 31
0.0
100
AcDbText
  0
TEXT
  5
58E
330
504
100
AcDbEntity
  8
2-線
100
AcDbText
 10
309.0
 20
47.5
 30
0.0
 40
3.0
  1
Ｕ．ジョイント
 41
0.9
 11
309.0
 21
49.0
 31
0.0
100
AcDbText
 73
     2
  0
TEXT
  5
58F
330
504
100
AcDbEntity
  8
2-線
100
AcDbText
 10
357.0
 20
47.5
 30
0.0
 40
3.0
  1
ＳＣＭ４１５
 41
0.8
 11
357.0
 21
49.0
 31
0.0
100
AcDbText
 73
     2
  0
TEXT
  5
590
330
504
100
AcDbEntity
  8
2-線
100
AcDbText
 10
340.6
 20
47.5
 30
0.0
 40
3.0
  1
１ｓｅｔ
 72
     4
 11
347.5
 21
49.0
 31
0.0
100
AcDbText
  0
TEXT
  5
591
330
504
100
AcDbEntity
  8
2-線
100
AcDbText
 10
377.0
 20
47.5
 30
0.0
 40
3.0
  1
浸炭焼き入れ
 11
377.0
 21
49.0
 31
0.0
100
AcDbText
 73
     2
  0
LINE
  5
592
330
504
100
AcDbEntity
  8
2-線
100
AcDbLine
 10
247.0
 20
58.0
 30
0.0
 11
410.0
 21
58.0
 31
0.0
  0
TEXT
  5
593
330
504
100
AcDbEntity
  8
2-線
100
AcDbText
 10
259.0
 20
53.5
 30
0.0
 40
3.0
  1
ＬＩＶ１０－００－０００
 41
0.9
 11
259.0
 21
55.0
 31
0.0
100
AcDbText
 73
     2
  0
TEXT
  5
594
330
504
100
AcDbEntity
  8
2-線
100
AcDbText
 10
250.6
 20
53.5
 30
0.0
 40
3.0
  1
３
 72
     4
 11
252.0
 21
55.0
 31
0.0
100
AcDbText
  0
TEXT
  5
595
330
504
100
AcDbEntity
  8
2-線
100
AcDbText
 10
309.0
 20
53.5
 30
0.0
 40
3.0
  1
スリーブ
 11
309.0
 21
55.0
 31
0.0
100
AcDbText
 73
     2
  0
TEXT
  5
596
330
504
100
AcDbEntity
  8
2-線
100
AcDbText
 10
357.0
 20
53.5
 30
0.0
 40
3.0
  1
Ｓ４５Ｃ
 41
0.8
 11
357.0
 21
55.0
 31
0.0
100
AcDbText
 73
     2
  0
TEXT
  5
597
330
504
100
AcDbEntity
  8
2-線
100
AcDbText
 10
346.2
 20
53.5
 30
0.0
 40
3.0
  1
１
 72
     4
 11
347.5
 21
55.0
 31
0.0
100
AcDbText
  0
LINE
  5
598
330
504
100
AcDbEntity
  8
2-線
100
AcDbLine
 10
247.0
 20
64.0
 30
0.0
 11
410.0
 21
64.0
 31
0.0
  0
TEXT
  5
599
330
504
100
AcDbEntity
  8
2-線
100
AcDbText
 10
259.0
 20
59.5
 30
0.0
 40
3.0
  1
ＬＩＳ１０－ＳＳ－００１
 41
0.9
 11
259.0
 21
61.0
 31
0.0
100
AcDbText
 73
     2
  0
TEXT
  5
59A
330
504
100
AcDbEntity
  8
2-線
100
AcDbText
 10
250.6
 20
59.5
 30
0.0
 40
3.0
  1
４
 72
     4
 11
252.0
 21
61.0
 31
0.0
100
AcDbText
  0
TEXT
  5
59B
330
504
100
AcDbEntity
  8
2-線
100
AcDbText
 10
309.0
 20
59.5
 30
0.0
 40
3.0
  1
スプライン軸
 41
0.9
 11
309.0
 21
61.0
 31
0.0
100
AcDbText
 73
     2
  0
TEXT
  5
59C
330
504
100
AcDbEntity
  8
2-線
100
AcDbText
 10
357.0
 20
59.5
 30
0.0
 40
3.0
  1
ＳＫ４
 41
0.8
 11
357.0
 21
61.0
 31
0.0
100
AcDbText
 73
     2
  0
TEXT
  5
59D
330
504
100
AcDbEntity
  8
2-線
100
AcDbText
 10
346.2
 20
59.5
 30
0.0
 40
3.0
  1
１
 72
     4
 11
347.5
 21
61.0
 31
0.0
100
AcDbText
  0
LINE
  5
59E
330
504
100
AcDbEntity
  8
2-線
100
AcDbLine
 10
247.0
 20
70.0
 30
0.0
 11
410.0
 21
70.0
 31
0.0
  0
TEXT
  5
59F
330
504
100
AcDbEntity
  8
2-線
100
AcDbText
 10
259.0
 20
65.5
 30
0.0
 40
3.0
  1
ＬＬＰ０８－００－０００
 41
0.9
 11
259.0
 21
67.0
 31
0.0
100
AcDbText
 73
     2
  0
TEXT
  5
5A0
330
504
100
AcDbEntity
  8
2-線
100
AcDbText
 10
250.5
 20
65.5
 30
0.0
 40
3.0
  1
５
 72
     4
 11
252.0
 21
67.0
 31
0.0
100
AcDbText
  0
TEXT
  5
5A1
330
504
100
AcDbEntity
  8
2-線
100
AcDbText
 10
309.0
 20
65.5
 30
0.0
 40
3.0
  1
連結軸
 41
0.9
 11
309.0
 21
67.0
 31
0.0
100
AcDbText
 73
     2
  0
TEXT
  5
5A2
330
504
100
AcDbEntity
  8
2-線
100
AcDbText
 10
357.0
 20
65.5
 30
0.0
 40
3.0
  1
ＳＫ４
 41
0.8
 11
357.0
 21
67.0
 31
0.0
100
AcDbText
 73
     2
  0
TEXT
  5
5A3
330
504
100
AcDbEntity
  8
2-線
100
AcDbText
 10
346.2
 20
65.5
 30
0.0
 40
3.0
  1
１
 72
     4
 11
347.5
 21
67.0
 31
0.0
100
AcDbText
  0
LINE
  5
5A4
330
504
100
AcDbEntity
  8
2-線
100
AcDbLine
 10
247.0
 20
76.0
 30
0.0
 11
410.0
 21
76.0
 31
0.0
  0
TEXT
  5
5A5
330
504
100
AcDbEntity
  8
2-線
100
AcDbText
 10
259.0
 20
71.5
 30
0.0
 40
3.0
  1
ＥＳＰ０５－１８
 41
0.9
 11
259.0
 21
73.0
 31
0.0
100
AcDbText
 73
     2
  0
TEXT
  5
5A6
330
504
100
AcDbEntity
  8
2-線
100
AcDbText
 10
250.6
 20
71.5
 30
0.0
 40
3.0
  1
６
 72
     4
 11
252.0
 21
73.0
 31
0.0
100
AcDbText
  0
TEXT
  5
5A7
330
504
100
AcDbEntity
  8
2-線
100
AcDbText
 10
309.0
 20
71.5
 30
0.0
 40
3.0
  1
平行ピン
 41
0.9
 11
309.0
 21
73.0
 31
0.0
100
AcDbText
 73
     2
  0
TEXT
  5
5A8
330
504
100
AcDbEntity
  8
2-線
100
AcDbText
 10
357.0
 20
71.5
 30
0.0
 40
3.0
  1
市販品
 41
0.8
 11
357.0
 21
73.0
 31
0.0
100
AcDbText
 73
     2
  0
TEXT
  5
5A9
330
504
100
AcDbEntity
  8
2-線
100
AcDbText
 10
346.2
 20
71.5
 30
0.0
 40
3.0
  1
１
 72
     4
 11
347.5
 21
73.0
 31
0.0
100
AcDbText
  0
ENDBLK
  5
5AB
330
504
100
AcDbEntity
  8
0
100
AcDbBlockEnd
  0
BLOCK
  5
1BFF
330
1BF1
100
AcDbEntity
  8
0
100
AcDbBlockBegin
  2
A$C313832AB
 70
     0
 10
0.0
 20
0.0
 30
0.0
  3
A$C313832AB
  1

  0
LINE
  5
1BF2
330
1BF1
100
AcDbEntity
  8
1-線
100
AcDbLine
 10
0.0
 20
0.0
 30
0.0
 11
20.0
 21
0.0
 31
0.0
  0
LINE
  5
1BF3
330
1BF1
100
AcDbEntity
  8
1-線
100
AcDbLine
 10
0.0
 20
5.0
 30
0.0
 11
20.0
 21
5.0
 31
0.0
  0
LINE
  5
1BF4
330
1BF1
100
AcDbEntity
  8
1-線
100
AcDbLine
 10
0.0
 20
10.0
 30
0.0
 11
20.0
 21
10.0
 31
0.0
  0
LINE
  5
1BF5
330
1BF1
100
AcDbEntity
  8
1-線
100
AcDbLine
 10
0.0
 20
30.0
 30
0.0
 11
20.0
 21
30.0
 31
0.0
  0
LINE
  5
1BF6
330
1BF1
100
AcDbEntity
  8
1-線
100
AcDbLine
 10
5.0
 20
15.0
 30
0.0
 11
15.0
 21
15.0
 31
0.0
  0
LINE
  5
1BF7
330
1BF1
100
AcDbEntity
  8
1-線
100
AcDbLine
 10
5.0
 20
25.0
 30
0.0
 11
15.0
 21
25.0
 31
0.0
  0
LINE
  5
1BF8
330
1BF1
100
AcDbEntity
  8
1-線
100
AcDbLine
 10
0.0
 20
30.0
 30
0.0
 11
0.0
 21
0.0
 31
0.0
  0
LINE
  5
1BF9
330
1BF1
100
AcDbEntity
  8
1-線
100
AcDbLine
 10
10.0
 20
25.0
 30
0.0
 11
10.0
 21
15.0
 31
0.0
  0
LINE
  5
1BFA
330
1BF1
100
AcDbEntity
  8
1-線
100
AcDbLine
 10
5.0
 20
30.0
 30
0.0
 11
5.0
 21
10.0
 31
0.0
  0
LINE
  5
1BFB
330
1BF1
100
AcDbEntity
  8
1-線
100
AcDbLine
 10
0.0
 20
20.0
 30
0.0
 11
5.0
 21
20.0
 31
0.0
  0
LINE
  5
1BFC
330
1BF1
100
AcDbEntity
  8
1-線
100
AcDbLine
 10
20.0
 20
30.0
 30
0.0
 11
20.0
 21
0.0
 31
0.0
  0
LINE
  5
1BFD
330
1BF1
100
AcDbEntity
  8
1-線
100
AcDbLine
 10
15.0
 20
30.0
 30
0.0
 11
15.0
 21
10.0
 31
0.0
  0
LINE
  5
1BFE
330
1BF1
100
AcDbEntity
  8
1-線
100
AcDbLine
 10
15.0
 20
20.0
 30
0.0
 11
20.0
 21
20.0
 31
0.0
  0
ENDBLK
  5
1C00
330
1BF1
100
AcDbEntity
  8
0
100
AcDbBlockEnd
  0
BLOCK
  5
1F6C
330
1F5E
100
AcDbEntity
  8
0
100
AcDbBlockBegin
  2
A$C1D0B0400
 70
     0
 10
0.0
 20
0.0
 30
0.0
  3
A$C1D0B0400
  1

  0
LINE
  5
1F5F
330
1F5E
100
AcDbEntity
  8
1-1点
100
AcDbLine
 10
0.0
 20
-15.0
 30
0.0
 11
0.0
 21
15.0
 31
0.0
  0
CIRCLE
  5
1F60
330
1F5E
100
AcDbEntity
  8
3-線
100
AcDbCircle
 10
0.0
 20
0.0
 30
0.0
 40
11.5
  0
CIRCLE
  5
1F61
330
1F5E
100
AcDbEntity
  8
3-線
100
AcDbCircle
 10
0.0
 20
0.0
 30
0.0
 40
6.0
  0
CIRCLE
  5
1F62
330
1F5E
100
AcDbEntity
  8
3-線
100
AcDbCircle
 10
0.0
 20
0.0
 30
0.0
 40
7.0
  0
LINE
  5
1F63
330
1F5E
100
AcDbEntity
  8
3-線
100
AcDbLine
 10
-4.499999999999943
 20
2.0
 30
0.0
 11
-5.656854249492369
 21
2.0
 31
0.0
  0
LINE
  5
1F64
330
1F5E
100
AcDbEntity
  8
3-線
100
AcDbLine
 10
-4.499999999999943
 20
-2.0
 30
0.0
 11
-5.656854249492369
 21
-2.0
 31
0.0
  0
LINE
  5
1F65
330
1F5E
100
AcDbEntity
  8
1-1点
100
AcDbLine
 10
-15.0
 20
0.0
 30
0.0
 11
15.0
 21
0.0
 31
0.0
  0
LINE
  5
1F66
330
1F5E
100
AcDbEntity
  8
3-線
100
AcDbLine
 10
5.454356057317851
 20
-2.5
 30
0.0
 11
-4.000000000000055
 21
-2.499999999999943
 31
0.0
  0
LINE
  5
1F67
330
1F5E
100
AcDbEntity
  8
3-線
100
AcDbLine
 10
5.454356057317851
 20
2.5
 30
0.0
 11
-3.999999999999828
 21
2.500000000000055
 31
0.0
  0
LINE
  5
1F68
330
1F5E
100
AcDbEntity
  8
3-線
100
AcDbLine
 10
-3.999999999999943
 20
2.499999999999943
 30
0.0
 11
-3.999999999999943
 21
-2.500000000000055
 31
0.0
  0
LINE
  5
1F69
330
1F5E
100
AcDbEntity
  8
3-線
100
AcDbLine
 10
-4.499999999999943
 20
2.000000000000053
 30
0.0
 11
-4.499999999999943
 21
-1.999999999999943
 31
0.0
  0
LINE
  5
1F6A
330
1F5E
100
AcDbEntity
  8
3-線
100
AcDbLine
 10
-3.999999999999943
 20
2.499999999999943
 30
0.0
 11
-4.499999999999943
 21
2.0
 31
0.0
  0
LINE
  5
1F6B
330
1F5E
100
AcDbEntity
  8
3-線
100
AcDbLine
 10
-4.499999999999943
 20
-2.0
 30
0.0
 11
-3.999999999999943
 21
-2.500000000000055
 31
0.0
  0
ENDBLK
  5
1F6D
330
1F5E
100
AcDbEntity
  8
0
100
AcDbBlockEnd
  0
BLOCK
  5
28F8
330
28EE
100
AcDbEntity
  8
0
100
AcDbBlockBegin
  2
*D6
 70
     1
 10
0.0
 20
0.0
 30
0.0
  3
*D6
  1

  0
LINE
  5
378F
330
28EE
100
AcDbEntity
  8
1-線
 62
     0
370
    -2
100
AcDbLine
 10
188.0
 20
209.0
 30
0.0
 11
163.0
 21
209.0
 31
0.0
  0
LINE
  5
3790
330
28EE
100
AcDbEntity
  8
1-線
 62
     0
370
    -2
100
AcDbLine
 10
187.9999999999999
 20
183.0
 30
0.0
 11
163.0
 21
183.0
 31
0.0
  0
LINE
  5
3791
330
28EE
100
AcDbEntity
  8
1-線
 62
     0
370
    -2
100
AcDbLine
 10
164.0
 20
206.5
 30
0.0
 11
164.0
 21
185.5
 31
0.0
  0
INSERT
  5
3792
330
28EE
100
AcDbEntity
  8
1-線
 62
     0
370
    -2
100
AcDbBlockReference
  2
_Open30
 10
164.0
 20
209.0
 30
0.0
 41
2.5
 42
2.5
 43
2.5
 50
90.0
  0
INSERT
  5
3793
330
28EE
100
AcDbEntity
  8
1-線
 62
     0
370
    -2
100
AcDbBlockReference
  2
_Open30
 10
164.0
 20
183.0
 30
0.0
 41
2.5
 42
2.5
 43
2.5
 50
270.0
  0
MTEXT
  5
3794
330
28EE
100
AcDbEntity
  8
1-線
 62
     0
100
AcDbMText
 10
161.5
 20
196.0
 30
0.0
 40
3.0
 41
0.0
 71
     5
 72
     1
  1
%%c26
 11
0.0000000000000001
 21
1.0
 31
0.0
 73
     1
 44
1.0
1001
ACAD
1000
MTEXTBEGIN
1070
    73
1070
     1
1070
    44
1040
1.0
1070
    74
1070
     0
1000
MTEXTEND
  0
POINT
  5
3795
330
28EE
100
AcDbEntity
  8
Defpoints
 62
     0
100
AcDbPoint
 10
188.0
 20
209.0
 30
0.0
  0
POINT
  5
3796
330
28EE
100
AcDbEntity
  8
Defpoints
 62
     0
100
AcDbPoint
 10
187.9999999999999
 20
183.0
 30
0.0
  0
POINT
  5
3797
330
28EE
100
AcDbEntity
  8
Defpoints
 62
     0
100
AcDbPoint
 10
164.0
 20
183.0
 30
0.0
  0
ENDBLK
  5
28F9
330
28EE
100
AcDbEntity
  8
0
100
AcDbBlockEnd
  0
BLOCK
  5
2977
330
296D
100
AcDbEntity
  8
0
100
AcDbBlockBegin
  2
*D7
 70
     1
 10
0.0
 20
0.0
 30
0.0
  3
*D7
  1

  0
LINE
  5
37D0
330
296D
100
AcDbEntity
  8
1-線
 62
     0
370
    -2
100
AcDbLine
 10
244.0
 20
209.0
 30
0.0
 11
273.0688471154599
 21
209.0
 31
0.0
  0
LINE
  5
37D1
330
296D
100
AcDbEntity
  8
1-線
 62
     0
370
    -2
100
AcDbLine
 10
244.0000000000001
 20
183.0
 30
0.0
 11
273.0688471154599
 21
183.0
 31
0.0
  0
LINE
  5
37D2
330
296D
100
AcDbEntity
  8
1-線
 62
     0
370
    -2
100
AcDbLine
 10
272.0688471154599
 20
206.5
 30
0.0
 11
272.0688471154599
 21
185.5
 31
0.0
  0
INSERT
  5
37D3
330
296D
100
AcDbEntity
  8
1-線
 62
     0
370
    -2
100
AcDbBlockReference
  2
_Open30
 10
272.0688471154599
 20
209.0
 30
0.0
 41
2.5
 42
2.5
 43
2.5
 50
90.0
  0
INSERT
  5
37D4
330
296D
100
AcDbEntity
  8
1-線
 62
     0
370
    -2
100
AcDbBlockReference
  2
_Open30
 10
272.0688471154599
 20
183.0
 30
0.0
 41
2.5
 42
2.5
 43
2.5
 50
270.0
  0
MTEXT
  5
37D5
330
296D
100
AcDbEntity
  8
1-線
 62
     0
100
AcDbMText
 10
269.5688471154598
 20
196.0
 30
0.0
 40
3.0
 41
0.0
 71
     5
 72
     1
  1
%%c26
 11
0.0000000000000001
 21
1.0
 31
0.0
 73
     1
 44
1.0
1001
ACAD
1000
MTEXTBEGIN
1070
    73
1070
     1
1070
    44
1040
1.0
1070
    74
1070
     0
1000
MTEXTEND
  0
POINT
  5
37D6
330
296D
100
AcDbEntity
  8
Defpoints
 62
     0
100
AcDbPoint
 10
244.0
 20
209.0
 30
0.0
  0
POINT
  5
37D7
330
296D
100
AcDbEntity
  8
Defpoints
 62
     0
100
AcDbPoint
 10
244.0000000000001
 20
183.0
 30
0.0
  0
POINT
  5
37D8
330
296D
100
AcDbEntity
  8
Defpoints
 62
     0
100
AcDbPoint
 10
272.0688471154599
 20
183.0
 30
0.0
  0
ENDBLK
  5
2978
330
296D
100
AcDbEntity
  8
0
100
AcDbBlockEnd
  0
BLOCK
  5
29F1
330
29E7
100
AcDbEntity
  8
0
100
AcDbBlockBegin
  2
*D8
 70
     1
 10
0.0
 20
0.0
 30
0.0
  3
*D8
  1

  0
LINE
  5
3774
330
29E7
100
AcDbEntity
  8
1-線
 62
     0
370
    -2
100
AcDbLine
 10
186.4999999999998
 20
135.0
 30
0.0
 11
186.4999999999998
 21
127.0
 31
0.0
  0
LINE
  5
3775
330
29E7
100
AcDbEntity
  8
1-線
 62
     0
370
    -2
100
AcDbLine
 10
245.5000000000001
 20
135.1238644429595
 30
0.0
 11
245.5000000000001
 21
127.0
 31
0.0
  0
LINE
  5
3776
330
29E7
100
AcDbEntity
  8
1-線
 62
     0
370
    -2
100
AcDbLine
 10
188.9999999999998
 20
128.0
 30
0.0
 11
243.0000000000001
 21
128.0
 31
0.0
  0
INSERT
  5
3777
330
29E7
100
AcDbEntity
  8
1-線
 62
     0
370
    -2
100
AcDbBlockReference
  2
_Open30
 10
186.4999999999998
 20
128.0
 30
0.0
 41
2.5
 42
2.5
 43
2.5
 50
180.0
  0
INSERT
  5
3778
330
29E7
100
AcDbEntity
  8
1-線
 62
     0
370
    -2
100
AcDbBlockReference
  2
_Open30
 10
245.5000000000001
 20
128.0
 30
0.0
 41
2.5
 42
2.5
 43
2.5
  0
MTEXT
  5
3779
330
29E7
100
AcDbEntity
  8
1-線
 62
     0
100
AcDbMText
 10
216.0
 20
130.5
 30
0.0
 40
3.0
 41
0.0
 71
     5
 72
     1
  1
59
 73
     1
 44
1.0
1001
ACAD
1000
MTEXTBEGIN
1070
    73
1070
     1
1070
    44
1040
1.0
1070
    74
1070
     0
1000
MTEXTEND
  0
POINT
  5
377A
330
29E7
100
AcDbEntity
  8
Defpoints
 62
     0
100
AcDbPoint
 10
186.4999999999998
 20
135.0
 30
0.0
  0
POINT
  5
377B
330
29E7
100
AcDbEntity
  8
Defpoints
 62
     0
100
AcDbPoint
 10
245.5000000000001
 20
135.1238644429595
 30
0.0
  0
POINT
  5
377C
330
29E7
100
AcDbEntity
  8
Defpoints
 62
     0
100
AcDbPoint
 10
245.5000000000001
 20
128.0
 30
0.0
  0
ENDBLK
  5
29F2
330
29E7
100
AcDbEntity
  8
0
100
AcDbBlockEnd
  0
BLOCK
  5
29FD
330
29F3
100
AcDbEntity
  8
0
100
AcDbBlockBegin
  2
*D9
 70
     1
 10
0.0
 20
0.0
 30
0.0
  3
*D9
  1

  0
LINE
  5
37BE
330
29F3
100
AcDbEntity
  8
1-線
 62
     0
370
    -2
100
AcDbLine
 10
216.0000000000007
 20
164.0272419517466
 30
0.0
 11
216.0000000000007
 21
135.1238644429595
 31
0.0
  0
LINE
  5
37BF
330
29F3
100
AcDbEntity
  8
1-線
 62
     0
370
    -2
100
AcDbLine
 10
245.5000000000001
 20
144.0205142116764
 30
0.0
 11
245.5000000000001
 21
135.1238644429595
 31
0.0
  0
LINE
  5
37C0
330
29F3
100
AcDbEntity
  8
1-線
 62
     0
370
    -2
100
AcDbLine
 10
218.5000000000008
 20
136.1238644429595
 30
0.0
 11
243.0000000000001
 21
136.1238644429595
 31
0.0
  0
INSERT
  5
37C1
330
29F3
100
AcDbEntity
  8
1-線
 62
     0
370
    -2
100
AcDbBlockReference
  2
_Open30
 10
216.0000000000007
 20
136.1238644429595
 30
0.0
 41
2.5
 42
2.5
 43
2.5
 50
180.0
  0
INSERT
  5
37C2
330
29F3
100
AcDbEntity
  8
1-線
 62
     0
370
    -2
100
AcDbBlockReference
  2
_Open30
 10
245.5000000000001
 20
136.1238644429595
 30
0.0
 41
2.5
 42
2.5
 43
2.5
  0
MTEXT
  5
37C3
330
29F3
100
AcDbEntity
  8
1-線
 62
     0
100
AcDbMText
 10
230.7500000000004
 20
138.6238644429595
 30
0.0
 40
3.0
 41
0.0
 71
     5
 72
     1
  1
29.5
 73
     1
 44
1.0
1001
ACAD
1000
MTEXTBEGIN
1070
    73
1070
     1
1070
    44
1040
1.0
1070
    74
1070
     0
1000
MTEXTEND
  0
POINT
  5
37C4
330
29F3
100
AcDbEntity
  8
Defpoints
 62
     0
100
AcDbPoint
 10
216.0000000000007
 20
164.0272419517466
 30
0.0
  0
POINT
  5
37C5
330
29F3
100
AcDbEntity
  8
Defpoints
 62
     0
100
AcDbPoint
 10
245.5000000000001
 20
144.0205142116764
 30
0.0
  0
POINT
  5
37C6
330
29F3
100
AcDbEntity
  8
Defpoints
 62
     0
100
AcDbPoint
 10
245.5000000000001
 20
136.1238644429595
 30
0.0
  0
ENDBLK
  5
29FE
330
29F3
100
AcDbEntity
  8
0
100
AcDbBlockEnd
  0
BLOCK
  5
2A09
330
29FF
100
AcDbEntity
  8
0
100
AcDbBlockBegin
  2
*D10
 70
     1
 10
0.0
 20
0.0
 30
0.0
  3
*D10
  1

  0
LINE
  5
37B5
330
29FF
100
AcDbEntity
  8
1-線
 62
     0
370
    -2
100
AcDbLine
 10
245.5000000000001
 20
152.0
 30
0.0
 11
245.5000000000001
 21
143.0205142116764
 31
0.0
  0
LINE
  5
37B6
330
29FF
100
AcDbEntity
  8
1-線
 62
     0
370
    -2
100
AcDbLine
 10
228.5000000000001
 20
190.5
 30
0.0
 11
228.5000000000001
 21
143.0205142116764
 31
0.0
  0
LINE
  5
37B7
330
29FF
100
AcDbEntity
  8
1-線
 62
     0
370
    -2
100
AcDbLine
 10
243.0000000000001
 20
144.0205142116764
 30
0.0
 11
231.0000000000001
 21
144.0205142116764
 31
0.0
  0
INSERT
  5
37B8
330
29FF
100
AcDbEntity
  8
1-線
 62
     0
370
    -2
100
AcDbBlockReference
  2
_Open30
 10
245.5000000000001
 20
144.0205142116764
 30
0.0
 41
2.5
 42
2.5
 43
2.5
  0
INSERT
  5
37B9
330
29FF
100
AcDbEntity
  8
1-線
 62
     0
370
    -2
100
AcDbBlockReference
  2
_Open30
 10
228.5000000000001
 20
144.0205142116764
 30
0.0
 41
2.5
 42
2.5
 43
2.5
 50
180.0
  0
MTEXT
  5
37BA
330
29FF
100
AcDbEntity
  8
1-線
 62
     0
100
AcDbMText
 10
237.0000000000001
 20
146.5205142116764
 30
0.0
 40
3.0
 41
0.0
 71
     5
 72
     1
  1
17
 73
     1
 44
1.0
1001
ACAD
1000
MTEXTBEGIN
1070
    73
1070
     1
1070
    44
1040
1.0
1070
    74
1070
     0
1000
MTEXTEND
  0
POINT
  5
37BB
330
29FF
100
AcDbEntity
  8
Defpoints
 62
     0
100
AcDbPoint
 10
245.5000000000001
 20
152.0
 30
0.0
  0
POINT
  5
37BC
330
29FF
100
AcDbEntity
  8
Defpoints
 62
     0
100
AcDbPoint
 10
228.5000000000001
 20
190.5
 30
0.0
  0
POINT
  5
37BD
330
29FF
100
AcDbEntity
  8
Defpoints
 62
     0
100
AcDbPoint
 10
228.5000000000001
 20
144.0205142116764
 30
0.0
  0
ENDBLK
  5
2A0A
330
29FF
100
AcDbEntity
  8
0
100
AcDbBlockEnd
  0
BLOCK
  5
2A15
330
2A0B
100
AcDbEntity
  8
0
100
AcDbBlockBegin
  2
*D11
 70
     1
 10
0.0
 20
0.0
 30
0.0
  3
*D11
  1

  0
LINE
  5
37D9
330
2A0B
100
AcDbEntity
  8
1-線
 62
     0
370
    -2
100
AcDbLine
 10
237.0000000000001
 20
179.1186036789654
 30
0.0
 11
237.0000000000001
 21
151.0
 31
0.0
  0
LINE
  5
37DA
330
2A0B
100
AcDbEntity
  8
1-線
 62
     0
370
    -2
100
AcDbLine
 10
245.5000000000001
 20
184.5
 30
0.0
 11
245.5000000000001
 21
151.0
 31
0.0
  0
LINE
  5
37DB
330
2A0B
100
AcDbEntity
  8
1-線
 62
     0
370
    -2
100
AcDbLine
 10
239.5000000000001
 20
152.0
 30
0.0
 11
243.0000000000001
 21
152.0
 31
0.0
  0
INSERT
  5
37DC
330
2A0B
100
AcDbEntity
  8
1-線
 62
     0
370
    -2
100
AcDbBlockReference
  2
_Open30
 10
237.0000000000001
 20
152.0
 30
0.0
 41
2.5
 42
2.5
 43
2.5
 50
180.0
  0
INSERT
  5
37DD
330
2A0B
100
AcDbEntity
  8
1-線
 62
     0
370
    -2
100
AcDbBlockReference
  2
_Open30
 10
245.5000000000001
 20
152.0
 30
0.0
 41
2.5
 42
2.5
 43
2.5
  0
MTEXT
  5
37DE
330
2A0B
100
AcDbEntity
  8
1-線
 62
     0
100
AcDbMText
 10
242.0000000000008
 20
154.5
 30
0.0
 40
3.0
 41
0.0
 71
     5
 72
     1
  1
8.5
 73
     1
 44
1.0
1001
ACAD
1000
MTEXTBEGIN
1070
    73
1070
     1
1070
    44
1040
1.0
1070
    74
1070
     0
1000
MTEXTEND
  0
POINT
  5
37DF
330
2A0B
100
AcDbEntity
  8
Defpoints
 62
     0
100
AcDbPoint
 10
237.0000000000001
 20
179.1186036789654
 30
0.0
  0
POINT
  5
37E0
330
2A0B
100
AcDbEntity
  8
Defpoints
 62
     0
100
AcDbPoint
 10
245.5000000000001
 20
184.5
 30
0.0
  0
POINT
  5
37E1
330
2A0B
100
AcDbEntity
  8
Defpoints
 62
     0
100
AcDbPoint
 10
245.5000000000001
 20
152.0
 30
0.0
  0
ENDBLK
  5
2A16
330
2A0B
100
AcDbEntity
  8
0
100
AcDbBlockEnd
  0
BLOCK
  5
2A7C
330
2A72
100
AcDbEntity
  8
0
100
AcDbBlockBegin
  2
*D12
 70
     1
 10
0.0
 20
0.0
 30
0.0
  3
*D12
  1

  0
LINE
  5
3938
330
2A72
100
AcDbEntity
  8
1-線
 62
     0
370
    -2
100
AcDbLine
 10
194.9999999999994
 20
158.5987327208926
 30
0.0
 11
194.9999999999992
 21
151.0
 31
0.0
  0
LINE
  5
3939
330
2A72
100
AcDbEntity
  8
1-線
 62
     0
370
    -2
100
AcDbLine
 10
186.5
 20
156.6556841886208
 30
0.0
 11
186.4999999999998
 21
151.0000000000002
 31
0.0
  0
LINE
  5
393A
330
2A72
100
AcDbEntity
  8
1-線
 62
     0
370
    -2
100
AcDbLine
 10
192.4999999999992
 20
152.0000000000001
 30
0.0
 11
188.9999999999998
 21
152.0000000000002
 31
0.0
  0
INSERT
  5
393B
330
2A72
100
AcDbEntity
  8
1-線
 62
     0
370
    -2
100
AcDbBlockReference
  2
_Open30
 10
194.9999999999992
 20
152.0
 30
0.0
 41
2.5
 42
2.5
 43
2.5
 50
359.9999999999984
  0
INSERT
  5
393C
330
2A72
100
AcDbEntity
  8
1-線
 62
     0
370
    -2
100
AcDbBlockReference
  2
_Open30
 10
186.4999999999998
 20
152.0000000000002
 30
0.0
 41
2.5
 42
2.5
 43
2.5
 50
179.9999999999984
  0
MTEXT
  5
393D
330
2A72
100
AcDbEntity
  8
1-線
 62
     0
100
AcDbMText
 10
191.2623496107686
 20
154.5
 30
0.0
 40
3.0
 41
0.0
 71
     5
 72
     1
  1
8.5
 73
     1
 44
1.0
1001
ACAD
1000
MTEXTBEGIN
1070
    73
1070
     1
1070
    44
1040
1.0
1070
    74
1070
     0
1000
MTEXTEND
  0
POINT
  5
393E
330
2A72
100
AcDbEntity
  8
Defpoints
 62
     0
100
AcDbPoint
 10
194.9999999999994
 20
158.5987327208926
 30
0.0
  0
POINT
  5
393F
330
2A72
100
AcDbEntity
  8
Defpoints
 62
     0
100
AcDbPoint
 10
186.5
 20
156.6556841886208
 30
0.0
  0
POINT
  5
3940
330
2A72
100
AcDbEntity
  8
Defpoints
 62
     0
100
AcDbPoint
 10
186.4999999999998
 20
152.0000000000002
 30
0.0
  0
ENDBLK
  5
2A7D
330
2A72
100
AcDbEntity
  8
0
100
AcDbBlockEnd
  0
BLOCK
  5
2A88
330
2A7E
100
AcDbEntity
  8
0
100
AcDbBlockBegin
  2
*D13
 70
     1
 10
0.0
 20
0.0
 30
0.0
  3
*D13
  1

  0
LINE
  5
377D
330
2A7E
100
AcDbEntity
  8
1-線
 62
     0
370
    -2
100
AcDbLine
 10
203.4999999999999
 20
183.0
 30
0.0
 11
203.4999999999999
 21
143.0
 31
0.0
  0
LINE
  5
377E
330
2A7E
100
AcDbEntity
  8
1-線
 62
     0
370
    -2
100
AcDbLine
 10
186.4999999999998
 20
151.0000000000002
 30
0.0
 11
186.4999999999998
 21
143.0
 31
0.0
  0
LINE
  5
377F
330
2A7E
100
AcDbEntity
  8
1-線
 62
     0
370
    -2
100
AcDbLine
 10
200.9999999999998
 20
144.0
 30
0.0
 11
188.9999999999998
 21
144.0
 31
0.0
  0
INSERT
  5
3780
330
2A7E
100
AcDbEntity
  8
1-線
 62
     0
370
    -2
100
AcDbBlockReference
  2
_Open30
 10
203.4999999999999
 20
144.0
 30
0.0
 41
2.5
 42
2.5
 43
2.5
  0
INSERT
  5
3781
330
2A7E
100
AcDbEntity
  8
1-線
 62
     0
370
    -2
100
AcDbBlockReference
  2
_Open30
 10
186.4999999999998
 20
144.0
 30
0.0
 41
2.5
 42
2.5
 43
2.5
 50
180.0
  0
MTEXT
  5
3782
330
2A7E
100
AcDbEntity
  8
1-線
 62
     0
100
AcDbMText
 10
194.9999999999998
 20
146.5
 30
0.0
 40
3.0
 41
0.0
 71
     5
 72
     1
  1
17
 73
     1
 44
1.0
1001
ACAD
1000
MTEXTBEGIN
1070
    73
1070
     1
1070
    44
1040
1.0
1070
    74
1070
     0
1000
MTEXTEND
  0
POINT
  5
3783
330
2A7E
100
AcDbEntity
  8
Defpoints
 62
     0
100
AcDbPoint
 10
203.4999999999999
 20
183.0
 30
0.0
  0
POINT
  5
3784
330
2A7E
100
AcDbEntity
  8
Defpoints
 62
     0
100
AcDbPoint
 10
186.4999999999998
 20
151.0000000000002
 30
0.0
  0
POINT
  5
3785
330
2A7E
100
AcDbEntity
  8
Defpoints
 62
     0
100
AcDbPoint
 10
186.4999999999998
 20
144.0
 30
0.0
  0
ENDBLK
  5
2A89
330
2A7E
100
AcDbEntity
  8
0
100
AcDbBlockEnd
  0
BLOCK
  5
2A94
330
2A8A
100
AcDbEntity
  8
0
100
AcDbBlockBegin
  2
*D14
 70
     1
 10
0.0
 20
0.0
 30
0.0
  3
*D14
  1

  0
LINE
  5
376B
330
2A8A
100
AcDbEntity
  8
1-線
 62
     0
370
    -2
100
AcDbLine
 10
216.0000000000004
 20
172.649852703333
 30
0.0
 11
216.0000000000004
 21
135.0
 31
0.0
  0
LINE
  5
376C
330
2A8A
100
AcDbEntity
  8
1-線
 62
     0
370
    -2
100
AcDbLine
 10
186.4999999999998
 20
143.0
 30
0.0
 11
186.4999999999998
 21
135.0
 31
0.0
  0
LINE
  5
376D
330
2A8A
100
AcDbEntity
  8
1-線
 62
     0
370
    -2
100
AcDbLine
 10
213.5000000000004
 20
136.0
 30
0.0
 11
188.9999999999998
 21
136.0
 31
0.0
  0
INSERT
  5
376E
330
2A8A
100
AcDbEntity
  8
1-線
 62
     0
370
    -2
100
AcDbBlockReference
  2
_Open30
 10
216.0000000000004
 20
136.0
 30
0.0
 41
2.5
 42
2.5
 43
2.5
  0
INSERT
  5
376F
330
2A8A
100
AcDbEntity
  8
1-線
 62
     0
370
    -2
100
AcDbBlockReference
  2
_Open30
 10
186.4999999999998
 20
136.0
 30
0.0
 41
2.5
 42
2.5
 43
2.5
 50
180.0
  0
MTEXT
  5
3770
330
2A8A
100
AcDbEntity
  8
1-線
 62
     0
100
AcDbMText
 10
201.2500000000001
 20
138.5
 30
0.0
 40
3.0
 41
0.0
 71
     5
 72
     1
  1
29.5
 73
     1
 44
1.0
1001
ACAD
1000
MTEXTBEGIN
1070
    73
1070
     1
1070
    44
1040
1.0
1070
    74
1070
     0
1000
MTEXTEND
  0
POINT
  5
3771
330
2A8A
100
AcDbEntity
  8
Defpoints
 62
     0
100
AcDbPoint
 10
216.0000000000004
 20
172.649852703333
 30
0.0
  0
POINT
  5
3772
330
2A8A
100
AcDbEntity
  8
Defpoints
 62
     0
100
AcDbPoint
 10
186.4999999999998
 20
143.0
 30
0.0
  0
POINT
  5
3773
330
2A8A
100
AcDbEntity
  8
Defpoints
 62
     0
100
AcDbPoint
 10
186.4999999999998
 20
136.0
 30
0.0
  0
ENDBLK
  5
2A95
330
2A8A
100
AcDbEntity
  8
0
100
AcDbBlockEnd
  0
BLOCK
  5
36E6
330
36DC
100
AcDbEntity
  8
0
100
AcDbBlockBegin
  2
*D15
 70
     1
 10
0.0
 20
0.0
 30
0.0
  3
*D15
  1

  0
LINE
  5
37C7
330
36DC
100
AcDbEntity
  8
1-線
 62
     0
370
    -2
100
AcDbLine
 10
244.0
 20
203.0
 30
0.0
 11
265.0000000000001
 21
203.0
 31
0.0
  0
LINE
  5
37C8
330
36DC
100
AcDbEntity
  8
1-線
 62
     0
370
    -2
100
AcDbLine
 10
244.0
 20
189.0
 30
0.0
 11
265.0000000000001
 21
189.0
 31
0.0
  0
LINE
  5
37C9
330
36DC
100
AcDbEntity
  8
1-線
 62
     0
370
    -2
100
AcDbLine
 10
264.0000000000001
 20
200.5
 30
0.0
 11
264.0000000000001
 21
191.5
 31
0.0
  0
INSERT
  5
37CA
330
36DC
100
AcDbEntity
  8
1-線
 62
     0
370
    -2
100
AcDbBlockReference
  2
_Open30
 10
264.0000000000001
 20
203.0
 30
0.0
 41
2.5
 42
2.5
 43
2.5
 50
90.0
  0
INSERT
  5
37CB
330
36DC
100
AcDbEntity
  8
1-線
 62
     0
370
    -2
100
AcDbBlockReference
  2
_Open30
 10
264.0000000000001
 20
189.0
 30
0.0
 41
2.5
 42
2.5
 43
2.5
 50
270.0
  0
MTEXT
  5
37CC
330
36DC
100
AcDbEntity
  8
1-線
 62
     0
100
AcDbMText
 10
261.5
 20
196.0000000000007
 30
0.0
 40
3.0
 41
0.0
 71
     5
 72
     1
  1
\A1;%%c14{\H0.7x;\SH7^ ;}
 11
0.0000000000000001
 21
1.0
 31
0.0
 73
     1
 44
1.0
1001
ACAD
1000
MTEXTBEGIN
1070
    73
1070
     1
1070
    44
1040
1.0
1070
    74
1070
     0
1000
MTEXTEND
  0
POINT
  5
37CD
330
36DC
100
AcDbEntity
  8
Defpoints
 62
     0
100
AcDbPoint
 10
244.0
 20
203.0
 30
0.0
  0
POINT
  5
37CE
330
36DC
100
AcDbEntity
  8
Defpoints
 62
     0
100
AcDbPoint
 10
244.0
 20
189.0
 30
0.0
  0
POINT
  5
37CF
330
36DC
100
AcDbEntity
  8
Defpoints
 62
     0
100
AcDbPoint
 10
264.0000000000001
 20
189.0
 30
0.0
  0
ENDBLK
  5
36E7
330
36DC
100
AcDbEntity
  8
0
100
AcDbBlockEnd
  0
BLOCK
  5
36F4
330
36E8
100
AcDbEntity
  8
0
100
AcDbBlockBegin
  2
*D16
 70
     1
 10
0.0
 20
0.0
 30
0.0
  3
*D16
  1

  0
LINE
  5
38E2
330
36E8
100
AcDbEntity
  8
1-線
 62
     0
370
    -2
100
AcDbLine
 10
197.8999999999999
 20
183.0
 30
0.0
 11
197.8999999999999
 21
159.0
 31
0.0
  0
LINE
  5
38E3
330
36E8
100
AcDbEntity
  8
1-線
 62
     0
370
    -2
100
AcDbLine
 10
192.1
 20
183.0
 30
0.0
 11
192.1
 21
159.0
 31
0.0
  0
LINE
  5
38E4
330
36E8
100
AcDbEntity
  8
1-線
 62
     0
370
    -2
100
AcDbLine
 10
200.4
 20
160.0
 30
0.0
 11
202.8999999999999
 21
160.0
 31
0.0
  0
LINE
  5
38E5
330
36E8
100
AcDbEntity
  8
1-線
 62
     0
370
    -2
100
AcDbLine
 10
189.6
 20
160.0
 30
0.0
 11
171.3199999999999
 21
160.0
 31
0.0
  0
LINE
  5
38E6
330
36E8
100
AcDbEntity
  8
1-線
 62
     0
370
    -2
100
AcDbLine
 10
197.8999999999999
 20
160.0
 30
0.0
 11
192.1
 21
160.0
 31
0.0
  0
INSERT
  5
38E7
330
36E8
100
AcDbEntity
  8
1-線
 62
     0
370
    -2
100
AcDbBlockReference
  2
_Open30
 10
197.8999999999999
 20
160.0
 30
0.0
 41
2.5
 42
2.5
 43
2.5
 50
180.0
  0
INSERT
  5
38E8
330
36E8
100
AcDbEntity
  8
1-線
 62
     0
370
    -2
100
AcDbBlockReference
  2
_Open30
 10
192.1
 20
160.0
 30
0.0
 41
2.5
 42
2.5
 43
2.5
  0
MTEXT
  5
38E9
330
36E8
100
AcDbEntity
  8
1-線
 62
     0
100
AcDbMText
 10
179.21
 20
163.45
 30
0.0
 40
3.0
 41
0.0
 71
     5
 72
     1
  1
\A1;%%c5.8{\H0.7x;\SH8^ ｍ6;}
 73
     1
 44
1.0
1001
ACAD
1000
MTEXTBEGIN
1070
    73
1070
     1
1070
    44
1040
1.0
1070
    74
1070
     0
1000
MTEXTEND
  0
POINT
  5
38EA
330
36E8
100
AcDbEntity
  8
Defpoints
 62
     0
100
AcDbPoint
 10
197.8999999999999
 20
183.0
 30
0.0
  0
POINT
  5
38EB
330
36E8
100
AcDbEntity
  8
Defpoints
 62
     0
100
AcDbPoint
 10
192.1
 20
183.0
 30
0.0
  0
POINT
  5
38EC
330
36E8
100
AcDbEntity
  8
Defpoints
 62
     0
100
AcDbPoint
 10
192.1
 20
160.0
 30
0.0
  0
ENDBLK
  5
36F5
330
36E8
100
AcDbEntity
  8
0
100
AcDbBlockEnd
  0
BLOCK
  5
3700
330
36F6
100
AcDbEntity
  8
0
100
AcDbBlockBegin
  2
*D17
 70
     1
 10
0.0
 20
0.0
 30
0.0
  3
*D17
  1

  0
LINE
  5
3786
330
36F6
100
AcDbEntity
  8
1-線
 62
     0
370
    -2
100
AcDbLine
 10
188.0
 20
203.0
 30
0.0
 11
171.0
 21
203.0
 31
0.0
  0
LINE
  5
3787
330
36F6
100
AcDbEntity
  8
1-線
 62
     0
370
    -2
100
AcDbLine
 10
188.0
 20
189.0
 30
0.0
 11
171.0
 21
189.0
 31
0.0
  0
LINE
  5
3788
330
36F6
100
AcDbEntity
  8
1-線
 62
     0
370
    -2
100
AcDbLine
 10
172.0
 20
200.5
 30
0.0
 11
172.0
 21
191.5
 31
0.0
  0
INSERT
  5
3789
330
36F6
100
AcDbEntity
  8
1-線
 62
     0
370
    -2
100
AcDbBlockReference
  2
_Open30
 10
172.0
 20
203.0
 30
0.0
 41
2.5
 42
2.5
 43
2.5
 50
90.0
  0
INSERT
  5
378A
330
36F6
100
AcDbEntity
  8
1-線
 62
     0
370
    -2
100
AcDbBlockReference
  2
_Open30
 10
172.0
 20
189.0
 30
0.0
 41
2.5
 42
2.5
 43
2.5
 50
270.0
  0
MTEXT
  5
378B
330
36F6
100
AcDbEntity
  8
1-線
 62
     0
100
AcDbMText
 10
169.5
 20
196.0
 30
0.0
 40
3.0
 41
0.0
 71
     5
 72
     1
  1
\A1;%%c14{\H0.7x;\SH7^ ;}
 11
0.0000000000000001
 21
1.0
 31
0.0
 73
     1
 44
1.0
1001
ACAD
1000
MTEXTBEGIN
1070
    73
1070
     1
1070
    44
1040
1.0
1070
    74
1070
     0
1000
MTEXTEND
  0
POINT
  5
378C
330
36F6
100
AcDbEntity
  8
Defpoints
 62
     0
100
AcDbPoint
 10
188.0
 20
203.0
 30
0.0
  0
POINT
  5
378D
330
36F6
100
AcDbEntity
  8
Defpoints
 62
     0
100
AcDbPoint
 10
188.0
 20
189.0
 30
0.0
  0
POINT
  5
378E
330
36F6
100
AcDbEntity
  8
Defpoints
 62
     0
100
AcDbPoint
 10
172.0
 20
189.0
 30
0.0
  0
ENDBLK
  5
3701
330
36F6
100
AcDbEntity
  8
0
100
AcDbBlockEnd
  0
BLOCK
  5
3989
330
397F
100
AcDbEntity
  8
0
100
AcDbBlockBegin
  2
*D18
 70
     1
 10
0.0
 20
0.0
 30
0.0
  3
*D18
  1

  0
LINE
  5
3980
330
397F
100
AcDbEntity
  8
1-線
 62
     0
370
    -2
100
AcDbLine
 10
148.0
 20
214.0
 30
0.0
 11
148.0
 21
229.0
 31
0.0
  0
LINE
  5
3981
330
397F
100
AcDbEntity
  8
1-線
 62
     0
370
    -2
100
AcDbLine
 10
186.5
 20
207.5
 30
0.0
 11
186.5
 21
229.0
 31
0.0
  0
LINE
  5
3982
330
397F
100
AcDbEntity
  8
1-線
 62
     0
370
    -2
100
AcDbLine
 10
150.5
 20
228.0
 30
0.0
 11
184.0
 21
228.0
 31
0.0
  0
INSERT
  5
3983
330
397F
100
AcDbEntity
  8
1-線
 62
     0
370
    -2
100
AcDbBlockReference
  2
_Open30
 10
148.0
 20
228.0
 30
0.0
 41
2.5
 42
2.5
 43
2.5
 50
180.0
  0
INSERT
  5
3984
330
397F
100
AcDbEntity
  8
1-線
 62
     0
370
    -2
100
AcDbBlockReference
  2
_Open30
 10
186.5
 20
228.0
 30
0.0
 41
2.5
 42
2.5
 43
2.5
  0
MTEXT
  5
3985
330
397F
100
AcDbEntity
  8
1-線
 62
     0
100
AcDbMText
 10
167.25
 20
230.5
 30
0.0
 40
3.0
 41
0.0
 71
     5
 72
     1
  1
38.5
 73
     1
 44
1.0
  0
POINT
  5
3986
330
397F
100
AcDbEntity
  8
Defpoints
 62
     0
100
AcDbPoint
 10
148.0
 20
214.0
 30
0.0
  0
POINT
  5
3987
330
397F
100
AcDbEntity
  8
Defpoints
 62
     0
100
AcDbPoint
 10
186.5
 20
207.5
 30
0.0
  0
POINT
  5
3988
330
397F
100
AcDbEntity
  8
Defpoints
 62
     0
100
AcDbPoint
 10
186.5
 20
228.0
 30
0.0
  0
ENDBLK
  5
398A
330
397F
100
AcDbEntity
  8
0
100
AcDbBlockEnd
  0
BLOCK
  5
3996
330
398C
100
AcDbEntity
  8
0
100
AcDbBlockBegin
  2
*D19
 70
     1
 10
0.0
 20
0.0
 30
0.0
  3
*D19
  1

  0
LINE
  5
398D
330
398C
100
AcDbEntity
  8
1-線
 62
     0
370
    -2
100
AcDbLine
 10
245.5
 20
207.5
 30
0.0
 11
245.5
 21
233.0
 31
0.0
  0
LINE
  5
398E
330
398C
100
AcDbEntity
  8
1-線
 62
     0
370
    -2
100
AcDbLine
 10
288.0
 20
214.0
 30
0.0
 11
288.0
 21
233.0
 31
0.0
  0
LINE
  5
398F
330
398C
100
AcDbEntity
  8
1-線
 62
     0
370
    -2
100
AcDbLine
 10
248.0
 20
232.0
 30
0.0
 11
285.5
 21
232.0
 31
0.0
  0
INSERT
  5
3990
330
398C
100
AcDbEntity
  8
1-線
 62
     0
370
    -2
100
AcDbBlockReference
  2
_Open30
 10
245.5
 20
232.0
 30
0.0
 41
2.5
 42
2.5
 43
2.5
 50
180.0
  0
INSERT
  5
3991
330
398C
100
AcDbEntity
  8
1-線
 62
     0
370
    -2
100
AcDbBlockReference
  2
_Open30
 10
288.0
 20
232.0
 30
0.0
 41
2.5
 42
2.5
 43
2.5
  0
MTEXT
  5
3992
330
398C
100
AcDbEntity
  8
1-線
 62
     0
100
AcDbMText
 10
266.75
 20
234.5
 30
0.0
 40
3.0
 41
0.0
 71
     5
 72
     1
  1
42.5
 73
     1
 44
1.0
  0
POINT
  5
3993
330
398C
100
AcDbEntity
  8
Defpoints
 62
     0
100
AcDbPoint
 10
245.5
 20
207.5
 30
0.0
  0
POINT
  5
3994
330
398C
100
AcDbEntity
  8
Defpoints
 62
     0
100
AcDbPoint
 10
288.0
 20
214.0
 30
0.0
  0
POINT
  5
3995
330
398C
100
AcDbEntity
  8
Defpoints
 62
     0
100
AcDbPoint
 10
288.0
 20
232.0
 30
0.0
  0
ENDBLK
  5
3997
330
398C
100
AcDbEntity
  8
0
100
AcDbBlockEnd
  0
BLOCK
  5
39A4
330
399A
100
AcDbEntity
  8
0
100
AcDbBlockBegin
  2
*D20
 70
     1
 10
0.0
 20
0.0
 30
0.0
  3
*D20
  1

  0
LINE
  5
399B
330
399A
100
AcDbEntity
  8
1-線
 62
     0
370
    -2
100
AcDbLine
 10
281.0
 20
214.0
 30
0.0
 11
281.0
 21
227.9273880271298
 31
0.0
  0
LINE
  5
399C
330
399A
100
AcDbEntity
  8
1-線
 62
     0
370
    -2
100
AcDbLine
 10
245.5
 20
207.5
 30
0.0
 11
245.5
 21
227.9273880271298
 31
0.0
  0
LINE
  5
399D
330
399A
100
AcDbEntity
  8
1-線
 62
     0
370
    -2
100
AcDbLine
 10
278.5
 20
226.9273880271298
 30
0.0
 11
248.0
 21
226.9273880271298
 31
0.0
  0
INSERT
  5
399E
330
399A
100
AcDbEntity
  8
1-線
 62
     0
370
    -2
100
AcDbBlockReference
  2
_Open30
 10
281.0
 20
226.9273880271298
 30
0.0
 41
2.5
 42
2.5
 43
2.5
  0
INSERT
  5
399F
330
399A
100
AcDbEntity
  8
1-線
 62
     0
370
    -2
100
AcDbBlockReference
  2
_Open30
 10
245.5
 20
226.9273880271298
 30
0.0
 41
2.5
 42
2.5
 43
2.5
 50
180.0
  0
MTEXT
  5
39A0
330
399A
100
AcDbEntity
  8
1-線
 62
     0
100
AcDbMText
 10
263.25
 20
229.4273880271298
 30
0.0
 40
3.0
 41
0.0
 71
     5
 72
     1
  1
35.5
 73
     1
 44
1.0
  0
POINT
  5
39A1
330
399A
100
AcDbEntity
  8
Defpoints
 62
     0
100
AcDbPoint
 10
281.0
 20
214.0
 30
0.0
  0
POINT
  5
39A2
330
399A
100
AcDbEntity
  8
Defpoints
 62
     0
100
AcDbPoint
 10
245.5
 20
207.5
 30
0.0
  0
POINT
  5
39A3
330
399A
100
AcDbEntity
  8
Defpoints
 62
     0
100
AcDbPoint
 10
245.5
 20
226.9273880271298
 30
0.0
  0
ENDBLK
  5
39A5
330
399A
100
AcDbEntity
  8
0
100
AcDbBlockEnd
  0
BLOCK
  5
39B2
330
39A8
100
AcDbEntity
  8
0
100
AcDbBlockBegin
  2
*D21
 70
     1
 10
0.0
 20
0.0
 30
0.0
  3
*D21
  1

  0
LINE
  5
39A9
330
39A8
100
AcDbEntity
  8
1-線
 62
     0
370
    -2
100
AcDbLine
 10
245.5
 20
207.5
 30
0.0
 11
245.5
 21
227.6584011520946
 31
0.0
  0
LINE
  5
39AA
330
39A8
100
AcDbEntity
  8
1-線
 62
     0
370
    -2
100
AcDbLine
 10
285.2000000000007
 20
214.0
 30
0.0
 11
285.2000000000007
 21
227.6584011520946
 31
0.0
  0
LINE
  5
39AB
330
39A8
100
AcDbEntity
  8
1-線
 62
     0
370
    -2
100
AcDbLine
 10
248.0
 20
226.6584011520946
 30
0.0
 11
282.7000000000007
 21
226.6584011520946
 31
0.0
  0
INSERT
  5
39AC
330
39A8
100
AcDbEntity
  8
1-線
 62
     0
370
    -2
100
AcDbBlockReference
  2
_Open30
 10
245.5
 20
226.6584011520946
 30
0.0
 41
2.5
 42
2.5
 43
2.5
 50
180.0
  0
INSERT
  5
39AD
330
39A8
100
AcDbEntity
  8
1-線
 62
     0
370
    -2
100
AcDbBlockReference
  2
_Open30
 10
285.2000000000007
 20
226.6584011520946
 30
0.0
 41
2.5
 42
2.5
 43
2.5
  0
MTEXT
  5
39AE
330
39A8
100
AcDbEntity
  8
1-線
 62
     0
100
AcDbMText
 10
265.3500000000004
 20
229.1584011520946
 30
0.0
 40
3.0
 41
0.0
 71
     5
 72
     1
  1
39.7
 73
     1
 44
1.0
  0
POINT
  5
39AF
330
39A8
100
AcDbEntity
  8
Defpoints
 62
     0
100
AcDbPoint
 10
245.5
 20
207.5
 30
0.0
  0
POINT
  5
39B0
330
39A8
100
AcDbEntity
  8
Defpoints
 62
     0
100
AcDbPoint
 10
285.2000000000007
 20
214.0
 30
0.0
  0
POINT
  5
39B1
330
39A8
100
AcDbEntity
  8
Defpoints
 62
     0
100
AcDbPoint
 10
285.2000000000007
 20
226.6584011520946
 30
0.0
  0
ENDBLK
  5
39B3
330
39A8
100
AcDbEntity
  8
0
100
AcDbBlockEnd
  0
BLOCK
  5
39C1
330
39B7
100
AcDbEntity
  8
0
100
AcDbBlockBegin
  2
*D22
 70
     1
 10
0.0
 20
0.0
 30
0.0
  3
*D22
  1

  0
LINE
  5
39D0
330
39B7
100
AcDbEntity
  8
1-線
 62
     0
370
    -2
100
AcDbLine
 10
216.0
 20
196.0
 30
0.0
 11
216.0
 21
234.9210467780461
 31
0.0
  0
LINE
  5
39D1
330
39B7
100
AcDbEntity
  8
1-線
 62
     0
370
    -2
100
AcDbLine
 10
145.1
 20
195.9999999999999
 30
0.0
 11
145.1
 21
234.9210467780461
 31
0.0
  0
LINE
  5
39D2
330
39B7
100
AcDbEntity
  8
1-線
 62
     0
370
    -2
100
AcDbLine
 10
213.5
 20
233.9210467780461
 30
0.0
 11
147.6
 21
233.9210467780461
 31
0.0
  0
INSERT
  5
39D3
330
39B7
100
AcDbEntity
  8
1-線
 62
     0
370
    -2
100
AcDbBlockReference
  2
_Open30
 10
216.0
 20
233.9210467780461
 30
0.0
 41
2.5
 42
2.5
 43
2.5
  0
INSERT
  5
39D4
330
39B7
100
AcDbEntity
  8
1-線
 62
     0
370
    -2
100
AcDbBlockReference
  2
_Open30
 10
145.1
 20
233.9210467780461
 30
0.0
 41
2.5
 42
2.5
 43
2.5
 50
180.0
  0
MTEXT
  5
39D5
330
39B7
100
AcDbEntity
  8
1-線
 62
     0
100
AcDbMText
 10
180.55
 20
236.4210467780461
 30
0.0
 40
3.0
 41
0.0
 71
     5
 72
     1
  1
70.9
 73
     1
 44
1.0
  0
POINT
  5
39D6
330
39B7
100
AcDbEntity
  8
Defpoints
 62
     0
100
AcDbPoint
 10
216.0
 20
196.0
 30
0.0
  0
POINT
  5
39D7
330
39B7
100
AcDbEntity
  8
Defpoints
 62
     0
100
AcDbPoint
 10
145.1
 20
195.9999999999999
 30
0.0
  0
POINT
  5
39D8
330
39B7
100
AcDbEntity
  8
Defpoints
 62
     0
100
AcDbPoint
 10
145.1
 20
233.9210467780461
 30
0.0
  0
ENDBLK
  5
39C2
330
39B7
100
AcDbEntity
  8
0
100
AcDbBlockEnd
  0
BLOCK
  5
39CE
330
39C4
100
AcDbEntity
  8
0
100
AcDbBlockBegin
  2
*D23
 70
     1
 10
0.0
 20
0.0
 30
0.0
  3
*D23
  1

  0
LINE
  5
39C5
330
39C4
100
AcDbEntity
  8
1-線
 62
     0
370
    -2
100
AcDbLine
 10
216.0
 20
196.0
 30
0.0
 11
216.0
 21
234.9210467780461
 31
0.0
  0
LINE
  5
39C6
330
39C4
100
AcDbEntity
  8
1-線
 62
     0
370
    -2
100
AcDbLine
 10
285.2000000000007
 20
195.9999999999999
 30
0.0
 11
285.2000000000007
 21
234.9210467780461
 31
0.0
  0
LINE
  5
39C7
330
39C4
100
AcDbEntity
  8
1-線
 62
     0
370
    -2
100
AcDbLine
 10
218.5
 20
233.9210467780461
 30
0.0
 11
282.7000000000007
 21
233.9210467780461
 31
0.0
  0
INSERT
  5
39C8
330
39C4
100
AcDbEntity
  8
1-線
 62
     0
370
    -2
100
AcDbBlockReference
  2
_Open30
 10
216.0
 20
233.9210467780461
 30
0.0
 41
2.5
 42
2.5
 43
2.5
 50
180.0
  0
INSERT
  5
39C9
330
39C4
100
AcDbEntity
  8
1-線
 62
     0
370
    -2
100
AcDbBlockReference
  2
_Open30
 10
285.2000000000007
 20
233.9210467780461
 30
0.0
 41
2.5
 42
2.5
 43
2.5
  0
MTEXT
  5
39CA
330
39C4
100
AcDbEntity
  8
1-線
 62
     0
100
AcDbMText
 10
250.6000000000003
 20
236.4210467780461
 30
0.0
 40
3.0
 41
0.0
 71
     5
 72
     1
  1
69.2
 73
     1
 44
1.0
  0
POINT
  5
39CB
330
39C4
100
AcDbEntity
  8
Defpoints
 62
     0
100
AcDbPoint
 10
216.0
 20
196.0
 30
0.0
  0
POINT
  5
39CC
330
39C4
100
AcDbEntity
  8
Defpoints
 62
     0
100
AcDbPoint
 10
285.2000000000007
 20
195.9999999999999
 30
0.0
  0
POINT
  5
39CD
330
39C4
100
AcDbEntity
  8
Defpoints
 62
     0
100
AcDbPoint
 10
285.2000000000007
 20
233.9210467780461
 30
0.0
  0
ENDBLK
  5
39CF
330
39C4
100
AcDbEntity
  8
0
100
AcDbBlockEnd
  0
ENDSEC
  0
SECTION
  2
ENTITIES
  0
MTEXT
  5
E68
330
1F
100
AcDbEntity
  8
1-線
100
AcDbMText
 10
312.9841260005437
 20
164.7217985525683
 30
0.0
 40
3.0
 41
15.0
 71
     7
 72
     1
  1

 73
     1
 44
1.0
1001
ACAD
1000
MTEXTBEGIN
1070
    73
1070
     1
1070
    44
1040
1.0
1070
    74
1070
     0
1000
MTEXTEND
  0
LINE
  5
2BDA
330
1F
100
AcDbEntity
  8
3-線
100
AcDbLine
 10
147.35
 20
191.1499999999993
 30
0.0
 11
142.8500000000001
 21
191.1499999999993
 31
0.0
  0
LINE
  5
2BDB
330
1F
100
AcDbEntity
  8
3-線
100
AcDbLine
 10
148.0
 20
191.7999999999993
 30
0.0
 11
142.2000000000001
 21
191.7999999999993
 31
0.0
  0
CIRCLE
  5
2BDC
330
1F
100
AcDbEntity
  8
3-線
100
AcDbCircle
 10
145.1
 20
195.9999999999999
 30
0.0
 40
13.0
  0
CIRCLE
  5
2BDD
330
1F
100
AcDbEntity
  8
3-線
100
AcDbCircle
 10
145.1
 20
195.9999999999999
 30
0.0
 40
7.0
  0
CIRCLE
  5
2BDE
330
1F
100
AcDbEntity
  8
3-線
100
AcDbCircle
 10
145.1
 20
195.9999999999999
 30
0.0
 40
8.5
  0
LINE
  5
2BDF
330
1F
100
AcDbEntity
  8
3-線
100
AcDbLine
 10
142.2
 20
202.3710281744786
 30
0.0
 11
142.2000000000001
 21
191.7999999999992
 31
0.0
  0
LINE
  5
2BE0
330
1F
100
AcDbEntity
  8
3-線
100
AcDbLine
 10
142.2000000000001
 20
191.7999999999993
 30
0.0
 11
142.8500000000001
 21
191.1499999999993
 31
0.0
  0
LINE
  5
2BE1
330
1F
100
AcDbEntity
  8
3-線
100
AcDbLine
 10
142.8500000000001
 20
189.3714632082185
 30
0.0
 11
142.8500000000001
 21
191.1499999999993
 31
0.0
  0
LINE
  5
2BE2
330
1F
100
AcDbEntity
  8
3-線
100
AcDbLine
 10
148.0
 20
202.3710281744786
 30
0.0
 11
148.0000000000001
 21
191.7999999999994
 31
0.0
  0
LINE
  5
2BE3
330
1F
100
AcDbEntity
  8
3-線
100
AcDbLine
 10
148.0
 20
191.7999999999993
 30
0.0
 11
147.35
 21
191.1499999999993
 31
0.0
  0
LINE
  5
2BE4
330
1F
100
AcDbEntity
  8
3-線
100
AcDbLine
 10
147.3500000000001
 20
189.3714632082185
 30
0.0
 11
147.35
 21
191.1499999999993
 31
0.0
  0
CIRCLE
  5
2BF4
330
1F
100
AcDbEntity
  8
3-線
100
AcDbCircle
 10
285.2000000000007
 20
195.9999999999999
 30
0.0
 40
13.0
  0
LINE
  5
2BF5
330
1F
100
AcDbEntity
  8
3-線
100
AcDbLine
 10
278.8289718255222
 20
193.0999999999999
 30
0.0
 11
289.4000000000015
 21
193.1000000000001
 31
0.0
  0
LINE
  5
2BF6
330
1F
100
AcDbEntity
  8
3-線
100
AcDbLine
 10
278.828971825522
 20
198.8999999999999
 30
0.0
 11
289.4000000000013
 21
198.9
 31
0.0
  0
CIRCLE
  5
2BF7
330
1F
100
AcDbEntity
  8
3-線
100
AcDbCircle
 10
285.2000000000007
 20
195.9999999999999
 30
0.0
 40
8.5
  0
CIRCLE
  5
2BF8
330
1F
100
AcDbEntity
  8
3-線
100
AcDbCircle
 10
285.2000000000007
 20
195.9999999999999
 30
0.0
 40
7.0
  0
LINE
  5
2BF9
330
1F
100
AcDbEntity
  8
3-線
100
AcDbLine
 10
290.0500000000013
 20
198.25
 30
0.0
 11
290.0500000000014
 21
193.75
 31
0.0
  0
LINE
  5
2BFA
330
1F
100
AcDbEntity
  8
3-線
100
AcDbLine
 10
289.4000000000013
 20
198.9
 30
0.0
 11
289.4000000000013
 21
193.1
 31
0.0
  0
LINE
  5
2BFB
330
1F
100
AcDbEntity
  8
3-線
100
AcDbLine
 10
291.828536791782
 20
193.75
 30
0.0
 11
290.0500000000014
 21
193.75
 31
0.0
  0
LINE
  5
2BFC
330
1F
100
AcDbEntity
  8
3-線
100
AcDbLine
 10
289.4000000000013
 20
193.1
 30
0.0
 11
290.0500000000014
 21
193.75
 31
0.0
  0
LINE
  5
2BFD
330
1F
100
AcDbEntity
  8
3-線
100
AcDbLine
 10
291.828536791782
 20
198.25
 30
0.0
 11
290.0500000000013
 21
198.25
 31
0.0
  0
LINE
  5
2BFE
330
1F
100
AcDbEntity
  8
3-線
100
AcDbLine
 10
289.4000000000013
 20
198.9
 30
0.0
 11
290.0500000000013
 21
198.25
 31
0.0
  0
ARC
  5
3275
330
1F
100
AcDbEntity
  8
3-線
100
AcDbCircle
 10
244.0
 20
207.5
 30
0.0
 40
1.5
100
AcDbArc
 50
0.0
 51
90.0
  0
LINE
  5
3276
330
1F
100
AcDbEntity
  8
1-破線
100
AcDbLine
 10
245.5
 20
204.5
 30
0.0
 11
244.0
 21
203.0
 31
0.0
  0
LINE
  5
3277
330
1F
100
AcDbEntity
  8
1-破線
100
AcDbLine
 10
245.5
 20
187.5
 30
0.0
 11
244.0
 21
189.0
 31
0.0
  0
ARC
  5
3278
330
1F
100
AcDbEntity
  8
3-線
100
AcDbCircle
 10
244.0000000000001
 20
184.5
 30
0.0
 40
1.5
100
AcDbArc
 50
270.0
 51
0.0
  0
LINE
  5
32A1
330
1F
100
AcDbEntity
  8
3-線
100
AcDbLine
 10
223.5000000000001
 20
202.5
 30
0.0
 11
223.5
 21
189.5
 31
0.0
  0
LINE
  5
32A2
330
1F
100
AcDbEntity
  8
3-線
100
AcDbLine
 10
221.3495849235806
 20
200.1163626110196
 30
0.0
 11
221.3495849235806
 21
191.8836373889804
 31
0.0
  0
LINE
  5
32A3
330
1F
100
AcDbEntity
  8
3-線
100
AcDbLine
 10
237.6
 20
208.4
 30
0.0
 11
237.6000000000001
 21
183.5999999999999
 31
0.0
  0
LINE
  5
32A4
330
1F
100
AcDbEntity
  8
3-線
100
AcDbLine
 10
236.3999999999999
 20
208.4
 30
0.0
 11
236.4000000000001
 21
183.5999999999999
 31
0.0
  0
LINE
  5
32A5
330
1F
100
AcDbEntity
  8
3-線
100
AcDbLine
 10
232.5
 20
209.0
 30
0.0
 11
232.5000000000002
 21
183.0
 31
0.0
  0
LINE
  5
32A6
330
1F
100
AcDbEntity
  8
3-線
100
AcDbLine
 10
229.5
 20
209.0
 30
0.0
 11
229.5000000000002
 21
183.0
 31
0.0
  0
LINE
  5
32A7
330
1F
100
AcDbEntity
  8
1-破線
100
AcDbLine
 10
244.0
 20
203.0
 30
0.0
 11
244.0
 21
189.0
 31
0.0
  0
LINE
  5
32A8
330
1F
100
AcDbEntity
  8
3-線
100
AcDbLine
 10
235.8500000000001
 20
209.0
 30
0.0
 11
235.8500000000001
 21
198.6622359023948
 31
0.0
  0
LINE
  5
32A9
330
1F
100
AcDbEntity
  8
3-線
100
AcDbLine
 10
238.1499999999999
 20
209.0
 30
0.0
 11
238.1499999999999
 21
198.6622359023948
 31
0.0
  0
LINE
  5
32AA
330
1F
100
AcDbEntity
  8
3-線
100
AcDbLine
 10
228.5
 20
203.0
 30
0.0
 11
228.5000000000001
 21
189.0
 31
0.0
  0
LINE
  5
32AC
330
1F
100
AcDbEntity
  8
3-線
100
AcDbLine
 10
192.1000000000001
 20
209.0
 30
0.0
 11
192.1
 21
191.8
 31
0.0
  0
LINE
  5
32AD
330
1F
100
AcDbEntity
  8
3-線
100
AcDbLine
 10
197.9
 20
209.0
 30
0.0
 11
197.9
 21
191.7999999999999
 31
0.0
  0
LINE
  5
32B0
330
1F
100
AcDbEntity
  8
3-線
100
AcDbLine
 10
203.5000000000001
 20
209.0
 30
0.0
 11
203.4999999999999
 21
183.0
 31
0.0
  0
CIRCLE
  5
32B1
330
1F
100
AcDbEntity
  8
3-線
100
AcDbCircle
 10
216.0
 20
196.0
 30
0.0
 40
3.5
  0
ARC
  5
32B2
330
1F
100
AcDbEntity
  8
3-線
100
AcDbCircle
 10
216.0
 20
196.0
 30
0.0
 40
6.75
100
AcDbArc
 50
270.0
 51
90.0
  0
LINE
  5
32B4
330
1F
100
AcDbEntity
  8
3-線
100
AcDbLine
 10
186.5000000000001
 20
207.5
 30
0.0
 11
186.5
 21
184.5
 31
0.0
  0
ARC
  5
32B7
330
1F
100
AcDbEntity
  8
3-線
100
AcDbCircle
 10
216.0
 20
176.84548528635
 30
0.0
 40
8.154514713649962
100
AcDbArc
 50
90.0
 51
130.9975973343038
  0
LINE
  5
32B8
330
1F
100
AcDbEntity
  8
3-線
100
AcDbLine
 10
209.25
 20
188.5
 30
0.0
 11
226.5000000000001
 21
188.5
 31
0.0
  0
LINE
  5
32B9
330
1F
100
AcDbEntity
  8
3-線
100
AcDbLine
 10
229.5000000000002
 20
183.0
 30
0.0
 11
210.6504150764195
 21
183.0
 31
0.0
  0
LINE
  5
32BA
330
1F
100
AcDbEntity
  8
3-線
100
AcDbLine
 10
207.4999999999998
 20
189.25
 30
0.0
 11
216.0
 21
189.25
 31
0.0
  0
LINE
  5
32BB
330
1F
100
AcDbEntity
  8
3-線
100
AcDbLine
 10
192.75
 20
191.15
 30
0.0
 11
197.25
 21
191.15
 31
0.0
  0
LINE
  5
32BC
330
1F
100
AcDbEntity
  8
3-線
100
AcDbLine
 10
192.1
 20
191.7999999999999
 30
0.0
 11
197.9
 21
191.7999999999999
 31
0.0
  0
LINE
  5
32BD
330
1F
100
AcDbEntity
  8
3-線
100
AcDbLine
 10
192.75
 20
184.1999999999999
 30
0.0
 11
197.25
 21
184.1999999999999
 31
0.0
  0
LINE
  5
32BE
330
1F
100
AcDbEntity
  8
3-線
100
AcDbLine
 10
192.75
 20
184.1999999999999
 30
0.0
 11
192.75
 21
191.15
 31
0.0
  0
ARC
  5
32BF
330
1F
100
AcDbEntity
  8
3-線
100
AcDbCircle
 10
187.9999999999999
 20
184.5
 30
0.0
 40
1.5
100
AcDbArc
 50
180.0
 51
270.0
  0
LINE
  5
32C3
330
1F
100
AcDbEntity
  8
3-線
100
AcDbLine
 10
187.9999999999999
 20
183.0
 30
0.0
 11
193.85
 21
183.0
 31
0.0
  0
CIRCLE
  5
32C4
330
1F
100
AcDbEntity
  8
3-線
100
AcDbCircle
 10
195.0
 20
183.5999999999999
 30
0.0
 40
0.6
  0
LINE
  5
32C5
330
1F
100
AcDbEntity
  8
3-線
100
AcDbLine
 10
193.85
 20
184.1999999999999
 30
0.0
 11
193.85
 21
183.0
 31
0.0
  0
LINE
  5
32C6
330
1F
100
AcDbEntity
  8
3-線
100
AcDbLine
 10
188.0
 20
189.0
 30
0.0
 11
192.75
 21
189.0
 31
0.0
  0
LINE
  5
32C7
330
1F
100
AcDbEntity
  8
3-線
100
AcDbLine
 10
186.5
 20
187.5
 30
0.0
 11
188.0
 21
189.0
 31
0.0
  0
LINE
  5
32C8
330
1F
100
AcDbEntity
  8
3-線
100
AcDbLine
 10
192.1
 20
191.7999999999999
 30
0.0
 11
192.75
 21
191.15
 31
0.0
  0
LINE
  5
32C9
330
1F
100
AcDbEntity
  8
3-線
100
AcDbLine
 10
209.25
 20
188.5
 30
0.0
 11
209.25
 21
184.9999999999999
 31
0.0
  0
LINE
  5
32CA
330
1F
100
AcDbEntity
  8
3-線
100
AcDbLine
 10
197.25
 20
184.1999999999999
 30
0.0
 11
197.25
 21
191.15
 31
0.0
  0
ARC
  5
32CB
330
1F
100
AcDbEntity
  8
3-線
100
AcDbCircle
 10
207.4999999999998
 20
185.25
 30
0.0
 40
4.0
100
AcDbArc
 50
90.0
 51
180.0
  0
LINE
  5
32CD
330
1F
100
AcDbEntity
  8
3-線
100
AcDbLine
 10
196.1499999999999
 20
183.0
 30
0.0
 11
199.4999999999999
 21
183.0
 31
0.0
  0
LINE
  5
32D6
330
1F
100
AcDbEntity
  8
3-線
100
AcDbLine
 10
196.15
 20
184.1999999999999
 30
0.0
 11
196.15
 21
183.0
 31
0.0
  0
LINE
  5
32DF
330
1F
100
AcDbEntity
  8
3-線
100
AcDbLine
 10
209.25
 20
185.0
 30
0.0
 11
210.6504150764195
 21
183.0
 31
0.0
  0
LINE
  5
32E0
330
1F
100
AcDbEntity
  8
3-線
100
AcDbLine
 10
197.25
 20
189.0
 30
0.0
 11
203.4999999999999
 21
189.0
 31
0.0
  0
LINE
  5
32E1
330
1F
100
AcDbEntity
  8
3-線
100
AcDbLine
 10
197.9
 20
191.7999999999999
 30
0.0
 11
197.25
 21
191.15
 31
0.0
  0
LINE
  5
32E3
330
1F
100
AcDbEntity
  8
3-線
100
AcDbLine
 10
209.25
 20
188.5
 30
0.0
 11
208.5
 21
189.25
 31
0.0
  0
ARC
  5
32E5
330
1F
100
AcDbEntity
  8
3-線
100
AcDbCircle
 10
224.5000000000002
 20
188.9999999999999
 30
0.0
 40
4.0
100
AcDbArc
 50
270.0
 51
0.0
  0
ARC
  5
32E6
330
1F
100
AcDbEntity
  8
3-線
100
AcDbCircle
 10
226.5000000000001
 20
190.4999999999999
 30
0.0
 40
2.0
100
AcDbArc
 50
270.0
 51
0.0
  0
LINE
  5
32E7
330
1F
100
AcDbEntity
  8
1-破線
100
AcDbLine
 10
244.0
 20
189.0
 30
0.0
 11
227.8228756555324
 21
189.0
 31
0.0
  0
LINE
  5
32EA
330
1F
100
AcDbEntity
  8
3-線
100
AcDbLine
 10
216.0
 20
184.9999999999999
 30
0.0
 11
224.5000000000002
 21
185.0
 31
0.0
  0
LINE
  5
32FC
330
1F
100
AcDbEntity
  8
3-線
100
AcDbLine
 10
222.5
 20
188.5
 30
0.0
 11
223.5
 21
189.5
 31
0.0
  0
LINE
  5
32FD
330
1F
100
AcDbEntity
  8
3-線
100
AcDbLine
 10
238.15
 20
193.3377640976051
 30
0.0
 11
238.15
 21
183.0
 31
0.0
  0
LINE
  5
32FE
330
1F
100
AcDbEntity
  8
3-線
100
AcDbLine
 10
235.8500000000001
 20
193.3377640976051
 30
0.0
 11
235.8500000000001
 21
183.0
 31
0.0
  0
ARC
  5
32FF
330
1F
100
AcDbEntity
  8
3-線
100
AcDbCircle
 10
237.0000000000001
 20
183.5999999999999
 30
0.0
 40
0.6
100
AcDbArc
 50
180.0
 51
0.0
  0
LINE
  5
3306
330
1F
100
AcDbEntity
  8
3-線
100
AcDbLine
 10
235.8500000000001
 20
183.0
 30
0.0
 11
232.5000000000002
 21
183.0
 31
0.0
  0
LINE
  5
3307
330
1F
100
AcDbEntity
  8
3-線
100
AcDbLine
 10
232.5000000000002
 20
183.5
 30
0.0
 11
229.5000000000002
 21
183.5
 31
0.0
  0
LINE
  5
3308
330
1F
100
AcDbEntity
  8
3-線
100
AcDbLine
 10
236.4000000000001
 20
184.2
 30
0.0
 11
235.8500000000001
 21
184.2
 31
0.0
  0
LINE
  5
3309
330
1F
100
AcDbEntity
  8
3-線
100
AcDbLine
 10
244.0000000000001
 20
183.0
 30
0.0
 11
238.1500000000001
 21
183.0
 31
0.0
  0
LINE
  5
330A
330
1F
100
AcDbEntity
  8
3-線
100
AcDbLine
 10
238.15
 20
184.2
 30
0.0
 11
237.6000000000001
 21
184.2
 31
0.0
  0
ARC
  5
330B
330
1F
100
AcDbEntity
  8
3-線
100
AcDbCircle
 10
237.0
 20
196.0
 30
0.0
 40
2.9
100
AcDbArc
 50
101.9405439606081
 51
258.0594560393919
  0
ARC
  5
330C
330
1F
100
AcDbEntity
  8
3-線
100
AcDbCircle
 10
237.0
 20
196.0
 30
0.0
 40
2.9
100
AcDbArc
 50
281.9405439606081
 51
78.05945603939189
  0
ARC
  5
330F
330
1F
100
AcDbEntity
  8
3-線
100
AcDbCircle
 10
216.0000000000002
 20
215.1518073343968
 30
0.0
 40
8.152471547582416
100
AcDbArc
 50
228.9899200843098
 51
270.7313911136568
  0
LINE
  5
3310
330
1F
100
AcDbEntity
  8
3-線
100
AcDbLine
 10
209.25
 20
203.5
 30
0.0
 11
226.5000000000001
 21
203.5
 31
0.0
  0
LINE
  5
3311
330
1F
100
AcDbEntity
  8
3-線
100
AcDbLine
 10
229.5
 20
209.0
 30
0.0
 11
210.6504150764195
 21
209.0
 31
0.0
  0
LINE
  5
3312
330
1F
100
AcDbEntity
  8
3-線
100
AcDbLine
 10
207.5000000000001
 20
202.75
 30
0.0
 11
216.0
 21
202.75
 31
0.0
  0
LINE
  5
3314
330
1F
100
AcDbEntity
  8
3-線
100
AcDbLine
 10
192.1
 20
206.8
 30
0.0
 11
197.9
 21
206.8
 31
0.0
  0
LINE
  5
3315
330
1F
100
AcDbEntity
  8
3-線
100
AcDbLine
 10
193.1000000000001
 20
207.7999999999999
 30
0.0
 11
196.9000000000001
 21
207.7999999999999
 31
0.0
  0
LINE
  5
3316
330
1F
100
AcDbEntity
  8
3-線
100
AcDbLine
 10
188.0
 20
203.0
 30
0.0
 11
192.1000000000001
 21
203.0
 31
0.0
  0
LINE
  5
3317
330
1F
100
AcDbEntity
  8
3-線
100
AcDbLine
 10
186.5
 20
204.5
 30
0.0
 11
188.0
 21
203.0
 31
0.0
  0
ARC
  5
3318
330
1F
100
AcDbEntity
  8
3-線
100
AcDbCircle
 10
188.0
 20
207.5
 30
0.0
 40
1.5
100
AcDbArc
 50
90.0
 51
180.0
  0
LINE
  5
331D
330
1F
100
AcDbEntity
  8
3-線
100
AcDbLine
 10
188.0
 20
209.0
 30
0.0
 11
193.8500000000001
 21
209.0
 31
0.0
  0
CIRCLE
  5
331E
330
1F
100
AcDbEntity
  8
3-線
100
AcDbCircle
 10
195.0000000000001
 20
208.4
 30
0.0
 40
0.6
  0
LINE
  5
331F
330
1F
100
AcDbEntity
  8
3-線
100
AcDbLine
 10
193.1000000000001
 20
207.7999999999999
 30
0.0
 11
192.1000000000001
 21
206.8
 31
0.0
  0
LINE
  5
3320
330
1F
100
AcDbEntity
  8
3-線
100
AcDbLine
 10
193.8500000000001
 20
209.0
 30
0.0
 11
193.8500000000001
 21
207.7999999999999
 31
0.0
  0
LINE
  5
3326
330
1F
100
AcDbEntity
  8
3-線
100
AcDbLine
 10
196.15
 20
209.0
 30
0.0
 11
199.5000000000003
 21
209.0
 31
0.0
  0
ARC
  5
3327
330
1F
100
AcDbEntity
  8
3-線
100
AcDbCircle
 10
207.5000000000001
 20
206.75
 30
0.0
 40
4.0
100
AcDbArc
 50
180.0
 51
270.0
  0
LINE
  5
3328
330
1F
100
AcDbEntity
  8
3-線
100
AcDbLine
 10
197.9
 20
203.0
 30
0.0
 11
203.5
 21
203.0
 31
0.0
  0
LINE
  5
332B
330
1F
100
AcDbEntity
  8
3-線
100
AcDbLine
 10
196.9000000000001
 20
207.7999999999999
 30
0.0
 11
197.9
 21
206.8
 31
0.0
  0
LINE
  5
332C
330
1F
100
AcDbEntity
  8
3-線
100
AcDbLine
 10
196.15
 20
209.0
 30
0.0
 11
196.15
 21
207.7999999999999
 31
0.0
  0
LINE
  5
332D
330
1F
100
AcDbEntity
  8
3-線
100
AcDbLine
 10
209.25
 20
207.0
 30
0.0
 11
209.25
 21
203.5
 31
0.0
  0
LINE
  5
332E
330
1F
100
AcDbEntity
  8
3-線
100
AcDbLine
 10
209.25
 20
203.5
 30
0.0
 11
208.5
 21
202.75
 31
0.0
  0
LINE
  5
332F
330
1F
100
AcDbEntity
  8
3-線
100
AcDbLine
 10
210.6504150764195
 20
209.0
 30
0.0
 11
209.25
 21
206.9999999999999
 31
0.0
  0
ARC
  5
333B
330
1F
100
AcDbEntity
  8
3-線
100
AcDbCircle
 10
224.5000000000001
 20
203.0000000000001
 30
0.0
 40
4.0
100
AcDbArc
 50
359.9999999999968
 51
90.0
  0
ARC
  5
333C
330
1F
100
AcDbEntity
  8
3-線
100
AcDbCircle
 10
226.5000000000001
 20
201.5
 30
0.0
 40
2.0
100
AcDbArc
 50
0.0
 51
90.0
  0
LINE
  5
333D
330
1F
100
AcDbEntity
  8
1-破線
100
AcDbLine
 10
244.0
 20
203.0
 30
0.0
 11
227.8228756555324
 21
203.0
 31
0.0
  0
LINE
  5
333F
330
1F
100
AcDbEntity
  8
3-線
100
AcDbLine
 10
215.8959350346421
 20
207.0
 30
0.0
 11
224.5000000000001
 21
207.0
 31
0.0
  0
LINE
  5
3340
330
1F
100
AcDbEntity
  8
3-線
100
AcDbLine
 10
222.5000000000001
 20
203.4999999999999
 30
0.0
 11
223.5000000000001
 21
202.5
 31
0.0
  0
ARC
  5
3358
330
1F
100
AcDbEntity
  8
3-線
100
AcDbCircle
 10
237.0
 20
208.4
 30
0.0
 40
0.6
100
AcDbArc
 50
0.0
 51
180.0
  0
LINE
  5
335A
330
1F
100
AcDbEntity
  8
3-線
100
AcDbLine
 10
235.8500000000001
 20
209.0
 30
0.0
 11
232.5
 21
209.0
 31
0.0
  0
LINE
  5
335B
330
1F
100
AcDbEntity
  8
3-線
100
AcDbLine
 10
232.5
 20
208.5
 30
0.0
 11
229.5
 21
208.5
 31
0.0
  0
LINE
  5
335C
330
1F
100
AcDbEntity
  8
3-線
100
AcDbLine
 10
236.3999999999999
 20
207.8
 30
0.0
 11
235.85
 21
207.8
 31
0.0
  0
LINE
  5
335D
330
1F
100
AcDbEntity
  8
3-線
100
AcDbLine
 10
244.0
 20
209.0
 30
0.0
 11
238.1499999999999
 21
209.0
 31
0.0
  0
LINE
  5
335E
330
1F
100
AcDbEntity
  8
3-線
100
AcDbLine
 10
238.1499999999999
 20
207.8
 30
0.0
 11
237.6
 21
207.8
 31
0.0
  0
LINE
  5
3363
330
1F
100
AcDbEntity
  8
3-線
100
AcDbLine
 10
245.5
 20
207.5
 30
0.0
 11
245.5000000000001
 21
184.5
 31
0.0
  0
LINE
  5
3534
330
1F
100
AcDbEntity
  8
3-線
100
AcDbLine
 10
188.0
 20
203.0
 30
0.0
 11
188.0
 21
189.0
 31
0.0
  0
LINE
  5
37E8
330
1F
100
AcDbEntity
  8
3-線
100
AcDbLine
 10
199.5000000000004
 20
208.4999999999999
 30
0.0
 11
202.5000000000005
 21
208.4999999999999
 31
0.0
  0
LINE
  5
37E9
330
1F
100
AcDbEntity
  8
3-線
100
AcDbLine
 10
199.5000000000004
 20
183.4999999999999
 30
0.0
 11
202.5000000000005
 21
183.4999999999999
 31
0.0
  0
LINE
  5
37EA
330
1F
100
AcDbEntity
  8
3-線
100
AcDbLine
 10
199.5000000000003
 20
209.0000000000002
 30
0.0
 11
199.5000000000003
 21
208.4999999999999
 31
0.0
  0
LINE
  5
37EB
330
1F
100
AcDbEntity
  8
3-線
100
AcDbLine
 10
202.5000000000003
 20
209.0000000000001
 30
0.0
 11
202.5000000000003
 21
208.4999999999999
 31
0.0
  0
LINE
  5
37EC
330
1F
100
AcDbEntity
  8
3-線
100
AcDbLine
 10
202.5000000000003
 20
209.0
 30
0.0
 11
203.5000000000001
 21
209.0
 31
0.0
  0
LINE
  5
37ED
330
1F
100
AcDbEntity
  8
3-線
100
AcDbLine
 10
202.4999999999999
 20
183.0
 30
0.0
 11
203.4999999999999
 21
183.0
 31
0.0
  0
LINE
  5
37EE
330
1F
100
AcDbEntity
  8
3-線
100
AcDbLine
 10
202.4999999999999
 20
183.4999999999999
 30
0.0
 11
202.4999999999999
 21
183.0000000000001
 31
0.0
  0
LINE
  5
37EF
330
1F
100
AcDbEntity
  8
3-線
100
AcDbLine
 10
199.4999999999999
 20
183.4999999999999
 30
0.0
 11
199.4999999999999
 21
183.0000000000001
 31
0.0
  0
LINE
  5
37FE
330
1F
100
AcDbEntity
  8
3-線
100
AcDbLine
 10
192.1
 20
189.0
 30
0.0
 11
192.1
 21
183.0
 31
0.0
  0
LINE
  5
37FF
330
1F
100
AcDbEntity
  8
3-線
100
AcDbLine
 10
197.9
 20
189.0
 30
0.0
 11
197.8999999999999
 21
183.0
 31
0.0
  0
ENDSEC
  0
SECTION
  2
OBJECTS
  0
DICTIONARY
  5
C
330
0
100
AcDbDictionary
281
     1
  3
ACAD_COLOR
350
3930
  3
ACAD_GROUP
350
D
  3
ACAD_LAYOUT
350
1A
  3
ACAD_MATERIAL
350
392F
  3
ACAD_MLINESTYLE
350
17
  3
ACAD_PLOTSETTINGS
350
19
  3
ACAD_PLOTSTYLENAME
350
E
  3
AcadDim
350
362B
  3
AcDbVariableDictionary
350
985
  0
DICTIONARY
  5
474
330
1F
100
AcDbDictionary
280
     1
281
     1
  3
ACAD_LAYOUTSELFREF
360
4B6
  0
DICTIONARY
  5
476
330
1B
100
AcDbDictionary
280
     1
281
     1
  3
ACAD_LAYOUTSELFREF
360
4B5
  0
DICTIONARY
  5
478
330
23
100
AcDbDictionary
280
     1
281
     1
  3
ACAD_LAYOUTSELFREF
360
4B7
  0
DICTIONARY
  5
3930
102
{ACAD_REACTORS
330
C
102
}
330
C
100
AcDbDictionary
281
     1
  0
DICTIONARY
  5
D
102
{ACAD_REACTORS
330
C
102
}
330
C
100
AcDbDictionary
281
     1
  0
DICTIONARY
  5
1A
102
{ACAD_REACTORS
330
C
102
}
330
C
100
AcDbDictionary
281
     1
  3
Model
350
22
  3
ﾚｲｱｳﾄ1
350
1E
  3
ﾚｲｱｳﾄ2
350
26
  0
DICTIONARY
  5
392F
102
{ACAD_REACTORS
330
C
102
}
330
C
100
AcDbDictionary
281
     1
  0
DICTIONARY
  5
17
102
{ACAD_REACTORS
330
C
102
}
330
C
100
AcDbDictionary
281
     1
  3
Standard
350
18
  0
DICTIONARY
  5
19
102
{ACAD_REACTORS
330
C
102
}
330
C
100
AcDbDictionary
281
     1
  3
Kyouwa-A3
350
37F7
  0
ACDBDICTIONARYWDFLT
  5
E
102
{ACAD_REACTORS
330
C
102
}
330
C
100
AcDbDictionary
281
     1
  3
Normal
350
F
100
AcDbDictionaryWithDefault
340
F
1001
ACAD
1000
TREAT_AS_HARD
1070
     0
  0
XRECORD
  5
362B
102
{ACAD_REACTORS
330
C
102
}
330
C
100
AcDbXrecord
280
     1
 90
   990106
  3

 60
     4
 61
     0
 62
     4
 63
     4
 64
     1
 65
     0
 66
     0
 67
     2
 68
     1
 69
     0
 70
     0
 71
     0
 72
     0
 40
15.0
170
     1
  0
DICTIONARY
  5
985
102
{ACAD_REACTORS
330
C
102
}
330
C
100
AcDbDictionary
281
     1
  3
DIMASSOC
350
3969
  3
PROJECTNAME
350
396A
  3
SORTENTS
350
986
  0
XRECORD
  5
4B6
102
{ACAD_REACTORS
330
474
102
}
330
474
100
AcDbXrecord
280
     1
340
1F
  0
XRECORD
  5
4B5
102
{ACAD_REACTORS
330
476
102
}
330
476
100
AcDbXrecord
280
     1
340
1B
  0
XRECORD
  5
4B7
102
{ACAD_REACTORS
330
478
102
}
330
478
100
AcDbXrecord
280
     1
340
23
  0
LAYOUT
  5
22
102
{ACAD_REACTORS
330
1A
102
}
330
1A
100
AcDbPlotSettings
  1
Kyouwa-A3
  2
HP DesignJet 430.pc3
  4
User269
  6
OLE1
 40
4.995333194732666
 41
16.93333625793457
 42
4.995330810546875
 43
16.93331909179687
 44
296.9259948730469
 45
419.8619995117183
 46
-5.0
 47
-25.0
 48
0.0
 49
0.0
140
0.0
141
0.0
142
1.0
143
1.0
 70
 11952
 72
     1
 73
     1
 74
     2
  7
monochrome.ctb
 75
    16
147
1.0
 76
     0
 77
     2
 78
   300
148
0.0
149
0.0
100
AcDbLayout
  1
Model
 70
     1
 71
     0
 10
0.0
 20
0.0
 11
12.0
 21
9.0
 12
0.0
 22
0.0
 32
0.0
 14
0.0
 24
0.0
 34
0.0
 15
0.0
 25
0.0
 35
0.0
146
0.0
 13
0.0
 23
0.0
 33
0.0
 16
1.0
 26
0.0
 36
0.0
 17
0.0
 27
1.0
 37
0.0
 76
     0
330
1F
  0
LAYOUT
  5
1E
102
{ACAD_REACTORS
330
1A
102
}
330
1A
100
AcDbPlotSettings
  1

  2
C:\PROGRAM FILES\AUTOCAD LT 2000I\plotters\DWF Classic.pc3
  4

  6

 40
0.0
 41
0.0
 42
0.0
 43
0.0
 44
0.0
 45
0.0
 46
0.0
 47
0.0
 48
0.0
 49
0.0
140
0.0
141
0.0
142
1.0
143
1.0
 70
   688
 72
     0
 73
     0
 74
     5
  7
monochrome.ctb
 75
    16
147
1.0
 76
     0
 77
     2
 78
   300
148
0.0
149
0.0
100
AcDbLayout
  1
ﾚｲｱｳﾄ1
 70
     1
 71
     1
 10
0.0
 20
0.0
 11
420.0
 21
297.0
 12
0.0
 22
0.0
 32
0.0
 14
1.000000000000000E+20
 24
1.000000000000000E+20
 34
1.000000000000000E+20
 15
-1.000000000000000E+20
 25
-1.000000000000000E+20
 35
-1.000000000000000E+20
146
0.0
 13
0.0
 23
0.0
 33
0.0
 16
1.0
 26
0.0
 36
0.0
 17
0.0
 27
1.0
 37
0.0
 76
     0
330
1B
  0
LAYOUT
  5
26
102
{ACAD_REACTORS
330
1A
102
}
330
1A
100
AcDbPlotSettings
  1

  2
C:\PROGRAM FILES\AUTOCAD LT 2000I\plotters\DWF Classic.pc3
  4

  6

 40
0.0
 41
0.0
 42
0.0
 43
0.0
 44
0.0
 45
0.0
 46
0.0
 47
0.0
 48
0.0
 49
0.0
140
0.0
141
0.0
142
1.0
143
1.0
 70
   688
 72
     0
 73
     0
 74
     5
  7
monochrome.ctb
 75
    16
147
1.0
 76
     0
 77
     2
 78
   300
148
0.0
149
0.0
100
AcDbLayout
  1
ﾚｲｱｳﾄ2
 70
     1
 71
     2
 10
0.0
 20
0.0
 11
12.0
 21
9.0
 12
0.0
 22
0.0
 32
0.0
 14
0.0
 24
0.0
 34
0.0
 15
0.0
 25
0.0
 35
0.0
146
0.0
 13
0.0
 23
0.0
 33
0.0
 16
1.0
 26
0.0
 36
0.0
 17
0.0
 27
1.0
 37
0.0
 76
     0
330
23
  0
MLINESTYLE
  5
18
102
{ACAD_REACTORS
330
17
102
}
330
17
100
AcDbMlineStyle
  2
STANDARD
 70
     0
  3

 62
   256
 51
90.0
 52
90.0
 71
     2
 49
0.5
 62
   256
  6
BYLAYER
 49
-0.5
 62
   256
  6
BYLAYER
  0
PLOTSETTINGS
  5
37F7
102
{ACAD_REACTORS
330
19
102
}
330
19
100
AcDbPlotSettings
  1
Kyouwa-A3
  2
HP DesignJet 430.pc3
  4
User269
  6
OLE1
 40
4.995333194732666
 41
16.93333625793457
 42
4.995330810546875
 43
16.93331909179687
 44
296.9259948730469
 45
419.8619995117183
 46
-5.0
 47
-25.0
 48
0.0
 49
0.0
140
0.0
141
0.0
142
1.0
143
1.0
 70
  1712
 72
     1
 73
     1
 74
     2
  7
monochrome.ctb
 75
    16
147
1.0
 76
     0
 77
     2
 78
   300
148
0.0
149
0.0
  0
ACDBPLACEHOLDER
  5
F
102
{ACAD_REACTORS
330
E
102
}
330
E
  0
DICTIONARYVAR
  5
3969
102
{ACAD_REACTORS
330
985
102
}
330
985
100
DictionaryVariables
280
     0
  1
1
  0
DICTIONARYVAR
  5
396A
102
{ACAD_REACTORS
330
985
102
}
330
985
100
DictionaryVariables
280
     0
  1

  0
DICTIONARYVAR
  5
986
102
{ACAD_REACTORS
330
985
102
}
330
985
100
DictionaryVariables
280
     0
  1
96
  0
ENDSEC
  0
EOF
