  0
SECTION
  2
HEADER
  9
$ACADVER
  1
AC1018
  9
$ACADMAINTVER
 70
     2
  9
$DWGCODEPAGE
  3
ANSI_932
  9
$INSBASE
 10
0.0
 20
0.0
 30
0.0
  9
$EXTMIN
 10
177.988587610876
 20
189.7852487151805
 30
-0.000000000000013
  9
$EXTMAX
 10
254.0277107456091
 20
202.225205048948
 30
0.0000000000000023
  9
$LIMMIN
 10
0.0
 20
0.0
  9
$LIMMAX
 10
420.0
 20
297.0
  9
$ORTHOMODE
 70
     1
  9
$REGENMODE
 70
     1
  9
$FILLMODE
 70
     1
  9
$QTEXTMODE
 70
     0
  9
$MIRRTEXT
 70
     1
  9
$LTSCALE
 40
0.5
  9
$ATTMODE
 70
     1
  9
$TEXTSIZE
 40
3.0
  9
$TRACEWID
 40
1.0
  9
$TEXTSTYLE
  7
Standard
  9
$CLAYER
  8
1-線
  9
$CELTYPE
  6
ByLayer
  9
$CECOLOR
 62
   256
  9
$CELTSCALE
 40
1.0
  9
$DISPSILH
 70
     0
  9
$DIMSCALE
 40
1.0
  9
$DIMASZ
 40
2.5
  9
$DIMEXO
 40
0.0
  9
$DIMDLI
 40
3.75
  9
$DIMRND
 40
0.0
  9
$DIMDLE
 40
0.0
  9
$DIMEXE
 40
1.0
  9
$DIMTP
 40
0.0
  9
$DIMTM
 40
0.0
  9
$DIMTXT
 40
3.0
  9
$DIMCEN
 40
0.0
  9
$DIMTSZ
 40
0.0
  9
$DIMTOL
 70
     0
  9
$DIMLIM
 70
     0
  9
$DIMTIH
 70
     0
  9
$DIMTOH
 70
     0
  9
$DIMSE1
 70
     0
  9
$DIMSE2
 70
     0
  9
$DIMTAD
 70
     1
  9
$DIMZIN
 70
     8
  9
$DIMBLK
  1
Open30
  9
$DIMASO
 70
     1
  9
$DIMSHO
 70
     1
  9
$DIMPOST
  1

  9
$DIMAPOST
  1

  9
$DIMALT
 70
     0
  9
$DIMALTD
 70
     3
  9
$DIMALTF
 40
0.1
  9
$DIMLFAC
 40
1.0
  9
$DIMTOFL
 70
     1
  9
$DIMTVP
 40
0.0
  9
$DIMTIX
 70
     0
  9
$DIMSOXD
 70
     0
  9
$DIMSAH
 70
     0
  9
$DIMBLK1
  1

  9
$DIMBLK2
  1

  9
$DIMSTYLE
  2
Kyouwa
  9
$DIMCLRD
 70
     0
  9
$DIMCLRE
 70
     0
  9
$DIMCLRT
 70
     0
  9
$DIMTFAC
 40
0.7
  9
$DIMGAP
 40
1.0
  9
$DIMJUST
 70
     0
  9
$DIMSD1
 70
     0
  9
$DIMSD2
 70
     0
  9
$DIMTOLJ
 70
     0
  9
$DIMTZIN
 70
     8
  9
$DIMALTZ
 70
     0
  9
$DIMALTTZ
 70
     0
  9
$DIMUPT
 70
     0
  9
$DIMDEC
 70
     2
  9
$DIMTDEC
 70
     2
  9
$DIMALTU
 70
     2
  9
$DIMALTTD
 70
     3
  9
$DIMTXSTY
  7
Standard
  9
$DIMAUNIT
 70
     0
  9
$DIMADEC
 70
     0
  9
$DIMALTRND
 40
0.0
  9
$DIMAZIN
 70
     0
  9
$DIMDSEP
 70
    46
  9
$DIMATFIT
 70
     3
  9
$DIMFRAC
 70
     0
  9
$DIMLDRBLK
  1
Open30
  9
$DIMLUNIT
 70
     2
  9
$DIMLWD
 70
    -2
  9
$DIMLWE
 70
    -2
  9
$DIMTMOVE
 70
     0
  9
$LUNITS
 70
     2
  9
$LUPREC
 70
     4
  9
$SKETCHINC
 40
1.0
  9
$FILLETRAD
 40
1.0
  9
$AUNITS
 70
     0
  9
$AUPREC
 70
     0
  9
$MENU
  1
.
  9
$ELEVATION
 40
0.0
  9
$PELEVATION
 40
0.0
  9
$THICKNESS
 40
0.0
  9
$LIMCHECK
 70
     0
  9
$CHAMFERA
 40
0.0
  9
$CHAMFERB
 40
0.0
  9
$CHAMFERC
 40
20.0
  9
$CHAMFERD
 40
0.0
  9
$SKPOLY
 70
     0
  9
$TDCREATE
 40
2452108.402762732
  9
$TDUCREATE
 40
2452108.027762732
  9
$TDUPDATE
 40
2454348.740091146
  9
$TDUUPDATE
 40
2454348.365091146
  9
$TDINDWG
 40
1.3515478241
  9
$TDUSRTIMER
 40
1.3515474653
  9
$USRTIMER
 70
     1
  9
$ANGBASE
 50
0.0
  9
$ANGDIR
 70
     0
  9
$PDMODE
 70
     0
  9
$PDSIZE
 40
0.0
  9
$PLINEWID
 40
0.0
  9
$SPLFRAME
 70
     0
  9
$SPLINETYPE
 70
     6
  9
$SPLINESEGS
 70
     8
  9
$HANDSEED
  5
26F8
  9
$SURFTAB1
 70
     6
  9
$SURFTAB2
 70
     6
  9
$SURFTYPE
 70
     6
  9
$SURFU
 70
     6
  9
$SURFV
 70
     6
  9
$UCSBASE
  2

  9
$UCSNAME
  2

  9
$UCSORG
 10
0.0
 20
0.0
 30
0.0
  9
$UCSXDIR
 10
1.0
 20
0.0
 30
0.0
  9
$UCSYDIR
 10
0.0
 20
1.0
 30
0.0
  9
$UCSORTHOREF
  2

  9
$UCSORTHOVIEW
 70
     0
  9
$UCSORGTOP
 10
0.0
 20
0.0
 30
0.0
  9
$UCSORGBOTTOM
 10
0.0
 20
0.0
 30
0.0
  9
$UCSORGLEFT
 10
0.0
 20
0.0
 30
0.0
  9
$UCSORGRIGHT
 10
0.0
 20
0.0
 30
0.0
  9
$UCSORGFRONT
 10
0.0
 20
0.0
 30
0.0
  9
$UCSORGBACK
 10
0.0
 20
0.0
 30
0.0
  9
$PUCSBASE
  2

  9
$PUCSNAME
  2

  9
$PUCSORG
 10
0.0
 20
0.0
 30
0.0
  9
$PUCSXDIR
 10
1.0
 20
0.0
 30
0.0
  9
$PUCSYDIR
 10
0.0
 20
1.0
 30
0.0
  9
$PUCSORTHOREF
  2

  9
$PUCSORTHOVIEW
 70
     0
  9
$PUCSORGTOP
 10
0.0
 20
0.0
 30
0.0
  9
$PUCSORGBOTTOM
 10
0.0
 20
0.0
 30
0.0
  9
$PUCSORGLEFT
 10
0.0
 20
0.0
 30
0.0
  9
$PUCSORGRIGHT
 10
0.0
 20
0.0
 30
0.0
  9
$PUCSORGFRONT
 10
0.0
 20
0.0
 30
0.0
  9
$PUCSORGBACK
 10
0.0
 20
0.0
 30
0.0
  9
$USERI1
 70
     0
  9
$USERI2
 70
     0
  9
$USERI3
 70
     0
  9
$USERI4
 70
     0
  9
$USERI5
 70
     0
  9
$USERR1
 40
0.0
  9
$USERR2
 40
0.0
  9
$USERR3
 40
0.0
  9
$USERR4
 40
0.0
  9
$USERR5
 40
0.0
  9
$WORLDVIEW
 70
     1
  9
$SHADEDGE
 70
     3
  9
$SHADEDIF
 70
    70
  9
$TILEMODE
 70
     1
  9
$MAXACTVP
 70
    48
  9
$PINSBASE
 10
0.0
 20
0.0
 30
0.0
  9
$PLIMCHECK
 70
     0
  9
$PEXTMIN
 10
0.9598916571909988
 20
0.8043799099959727
 30
0.0
  9
$PEXTMAX
 10
8.639024914718985
 20
7.239419189963752
 30
0.0
  9
$PLIMMIN
 10
-0.7005418191744587
 20
-0.2281003861915408
  9
$PLIMMAX
 10
10.29945794052965
 20
8.271899373512567
  9
$UNITMODE
 70
     0
  9
$VISRETAIN
 70
     1
  9
$PLINEGEN
 70
     0
  9
$PSLTSCALE
 70
     1
  9
$TREEDEPTH
 70
  3020
  9
$CMLSTYLE
  2
Standard
  9
$CMLJUST
 70
     0
  9
$CMLSCALE
 40
20.0
  9
$PROXYGRAPHICS
 70
     1
  9
$MEASUREMENT
 70
     0
  9
$CELWEIGHT
370
    -1
  9
$ENDCAPS
280
     0
  9
$JOINSTYLE
280
     0
  9
$LWDISPLAY
290
     0
  9
$INSUNITS
 70
     4
  9
$HYPERLINKBASE
  1

  9
$STYLESHEET
  1
MONOCHROME.CTB
  9
$XEDIT
290
     1
  9
$CEPSNTYPE
380
     0
  9
$PSTYLEMODE
290
     1
  9
$FINGERPRINTGUID
  2
{D5BDD00D-7A95-11D5-B0EC-00E0181A799A}
  9
$VERSIONGUID
  2
{31758429-F058-4F0E-8B22-F1B97C07E9F1}
  9
$EXTNAMES
290
     1
  9
$PSVPSCALE
 40
0.0
  9
$OLESTARTUP
290
     0
  9
$SORTENTS
280
    96
  9
$INDEXCTL
280
     0
  9
$HIDETEXT
280
     0
  9
$XCLIPFRAME
290
     0
  9
$HALOGAP
280
     0
  9
$OBSCOLOR
 70
   257
  9
$OBSLTYPE
280
     0
  9
$INTERSECTIONDISPLAY
280
     0
  9
$INTERSECTIONCOLOR
 70
   257
  9
$DIMASSOC
280
     1
  9
$PROJECTNAME
  1

  0
ENDSEC
  0
SECTION
  2
CLASSES
  0
CLASS
  1
ACDBDICTIONARYWDFLT
  2
AcDbDictionaryWithDefault
  3
ObjectDBX Classes
 90
        0
 91
        1
280
     0
281
     0
  0
CLASS
  1
PLOTSETTINGS
  2
AcDbPlotSettings
  3
ObjectDBX Classes
 90
        0
 91
        1
280
     0
281
     0
  0
CLASS
  1
DICTIONARYVAR
  2
AcDbDictionaryVar
  3
ObjectDBX Classes
 90
        0
 91
        3
280
     0
281
     0
  0
ENDSEC
  0
SECTION
  2
TABLES
  0
TABLE
  2
VPORT
  5
8
330
0
100
AcDbSymbolTable
 70
     3
  0
VPORT
  5
26F7
330
8
100
AcDbSymbolTableRecord
100
AcDbViewportTableRecord
  2
*Active
 70
     0
 10
0.0
 20
0.0
 11
1.0
 21
1.0
 12
216.0081491782425
 22
196.0052268820643
 13
0.0
 23
0.0
 14
4.0
 24
4.0
 15
8.0
 25
8.0
 16
0.0
 26
0.0
 36
1.0
 17
0.0
 27
0.0
 37
0.0
 40
35.45810687109211
 41
2.155234657039711
 42
50.0
 43
0.0
 44
0.0
 50
0.0
 51
0.0
 71
     0
 72
   100
 73
     1
 74
     3
 75
     0
 76
     1
 77
     0
 78
     0
281
     0
 65
     1
110
0.0
120
0.0
130
0.0
111
1.0
121
0.0
131
0.0
112
0.0
122
1.0
132
0.0
 79
     0
146
0.0
  0
ENDTAB
  0
TABLE
  2
LTYPE
  5
5
330
0
100
AcDbSymbolTable
 70
     6
  0
LTYPE
  5
14
330
5
100
AcDbSymbolTableRecord
100
AcDbLinetypeTableRecord
  2
ByBlock
 70
     0
  3

 72
    65
 73
     0
 40
0.0
  0
LTYPE
  5
15
330
5
100
AcDbSymbolTableRecord
100
AcDbLinetypeTableRecord
  2
ByLayer
 70
     0
  3

 72
    65
 73
     0
 40
0.0
  0
LTYPE
  5
16
330
5
100
AcDbSymbolTableRecord
100
AcDbLinetypeTableRecord
  2
Continuous
 70
     0
  3
Solid line
 72
    65
 73
     0
 40
0.0
  0
LTYPE
  5
2D
330
5
100
AcDbSymbolTableRecord
100
AcDbLinetypeTableRecord
  2
HIDDEN2
 70
     0
  3
Hidden (.5x) _ _ _ _ _ _ _ _ _ _ _ _ _ _ _ _ _
 72
    65
 73
     2
 40
4.762499999999998
 49
3.174999999999998
 74
     0
 49
-1.587499999999999
 74
     0
  0
LTYPE
  5
2E
330
5
100
AcDbSymbolTableRecord
100
AcDbLinetypeTableRecord
  2
CENTER2
 70
     0
  3
Center (.5x) ___ _ ___ _ ___ _ ___ _ ___ _ ___
 72
    65
 73
     4
 40
28.575
 49
19.05
 74
     0
 49
-3.174999999999998
 74
     0
 49
3.174999999999998
 74
     0
 49
-3.174999999999998
 74
     0
  0
LTYPE
  5
2F
330
5
100
AcDbSymbolTableRecord
100
AcDbLinetypeTableRecord
  2
PHANTOM2
 70
     0
  3
Phantom (.5x) ___ _ _ ___ _ _ ___ _ _ ___ _ _
 72
    65
 73
     6
 40
31.75
 49
15.875
 74
     0
 49
-3.174999999999998
 74
     0
 49
3.174999999999998
 74
     0
 49
-3.174999999999998
 74
     0
 49
3.174999999999998
 74
     0
 49
-3.174999999999998
 74
     0
  0
LTYPE
  5
FD
330
5
100
AcDbSymbolTableRecord
100
AcDbLinetypeTableRecord
  2
CENTER
 70
     0
  3
Center ____ _ ____ _ ____ _ ____ _ ____ _ ____
 72
    65
 73
     4
 40
50.8
 49
31.75
 74
     0
 49
-6.349999999999997
 74
     0
 49
6.349999999999997
 74
     0
 49
-6.349999999999997
 74
     0
  0
LTYPE
  5
1DD8
330
5
100
AcDbSymbolTableRecord
100
AcDbLinetypeTableRecord
  2
HIDDEN
 70
     0
  3
_ _ _ _ _ _ _ _ _ _ _ _ _ _ _ _ _ _ _ _ _ _
 72
    65
 73
     2
 40
0.25
 49
0.125
 74
     0
 49
-0.125
 74
     0
  0
ENDTAB
  0
TABLE
  2
LAYER
  5
2
330
0
100
AcDbSymbolTable
 70
    17
  0
LAYER
  5
10
330
2
100
AcDbSymbolTableRecord
100
AcDbLayerTableRecord
  2
0
 70
     0
 62
     7
  6
Continuous
370
   100
390
F
  0
LAYER
  5
30
330
2
100
AcDbSymbolTableRecord
100
AcDbLayerTableRecord
  2
1-線
 70
     0
 62
     3
  6
Continuous
370
    18
390
F
  0
LAYER
  5
31
330
2
100
AcDbSymbolTableRecord
100
AcDbLayerTableRecord
  2
1-破線
 70
     0
 62
     3
  6
HIDDEN2
370
    18
390
F
  0
LAYER
  5
32
330
2
100
AcDbSymbolTableRecord
100
AcDbLayerTableRecord
  2
1-1点
 70
     0
 62
     3
  6
CENTER2
370
    18
390
F
  0
LAYER
  5
33
330
2
100
AcDbSymbolTableRecord
100
AcDbLayerTableRecord
  2
1-2点
 70
     0
 62
     3
  6
PHANTOM2
370
    18
390
F
  0
LAYER
  5
3A
330
2
100
AcDbSymbolTableRecord
100
AcDbLayerTableRecord
  2
2-1点
 70
     0
 62
     6
  6
CENTER2
370
    18
390
F
  0
LAYER
  5
3B
330
2
100
AcDbSymbolTableRecord
100
AcDbLayerTableRecord
  2
2-2点
 70
     0
 62
     6
  6
PHANTOM2
370
    18
390
F
  0
LAYER
  5
3C
330
2
100
AcDbSymbolTableRecord
100
AcDbLayerTableRecord
  2
2-線
 70
     0
 62
     6
  6
Continuous
370
    18
390
F
  0
LAYER
  5
3D
330
2
100
AcDbSymbolTableRecord
100
AcDbLayerTableRecord
  2
2-破線
 70
     0
 62
     6
  6
HIDDEN2
370
    18
390
F
  0
LAYER
  5
3E
330
2
100
AcDbSymbolTableRecord
100
AcDbLayerTableRecord
  2
3-線
 70
     0
 62
     4
  6
Continuous
370
    35
390
F
  0
LAYER
  5
40
330
2
100
AcDbSymbolTableRecord
100
AcDbLayerTableRecord
  2
4-線
 70
     0
 62
     2
  6
Continuous
370
    35
390
F
  0
LAYER
  5
41
330
2
100
AcDbSymbolTableRecord
100
AcDbLayerTableRecord
  2
5-線
 70
     0
 62
     5
  6
Continuous
370
    35
390
F
  0
LAYER
  5
42
330
2
100
AcDbSymbolTableRecord
100
AcDbLayerTableRecord
  2
5-破線
 70
     0
 62
     5
  6
HIDDEN2
370
    18
390
F
  0
LAYER
  5
43
330
2
100
AcDbSymbolTableRecord
100
AcDbLayerTableRecord
  2
6-線
 70
     0
 62
     1
  6
Continuous
370
    35
390
F
  0
LAYER
  5
44
330
2
100
AcDbSymbolTableRecord
100
AcDbLayerTableRecord
  2
6-破線
 70
     0
 62
     1
  6
HIDDEN2
370
    18
390
F
  0
LAYER
  5
FF
330
2
100
AcDbSymbolTableRecord
100
AcDbLayerTableRecord
  2
4
 70
     0
 62
     6
  6
Continuous
370
    18
390
F
  0
LAYER
  5
1DD
330
2
100
AcDbSymbolTableRecord
100
AcDbLayerTableRecord
  2
Defpoints
 70
     4
 62
     7
  6
Continuous
290
     0
370
    -3
390
F
  0
ENDTAB
  0
TABLE
  2
STYLE
  5
3
330
0
100
AcDbSymbolTable
 70
     3
  0
STYLE
  5
11
330
3
100
AcDbSymbolTableRecord
100
AcDbTextStyleTableRecord
  2
Standard
 70
     0
 40
0.0
 41
1.0
 50
0.0
 71
     0
 42
3.0
  3
txt.shx
  4
bigfont.shx
  0
STYLE
  5
2C
330
3
100
AcDbSymbolTableRecord
100
AcDbTextStyleTableRecord
  2

 70
     1
 40
0.0
 41
1.0
 50
0.0
 71
     0
 42
2.5
  3
ltypeshp.shx
  4

  0
STYLE
  5
9C
330
3
100
AcDbSymbolTableRecord
100
AcDbTextStyleTableRecord
  2
縦
 70
     4
 40
0.0
 41
1.0
 50
0.0
 71
     0
 42
2.799999999999998
  3
txt.shx
  4
bigfont.shx
  0
ENDTAB
  0
TABLE
  2
VIEW
  5
6
330
0
100
AcDbSymbolTable
 70
     1
  0
VIEW
  5
502
330
6
100
AcDbSymbolTableRecord
100
AcDbViewTableRecord
  2
OLE1
 70
     0
 40
233.3949522673788
 10
309.4656970073121
 20
48.01785105749138
 41
232.3911030103148
 11
0.0
 21
0.0
 31
1.0
 12
0.0
 22
0.0
 32
0.0
 42
50.0
 43
0.0
 44
0.0
 50
0.0
 71
     0
281
     0
 72
     0
  0
ENDTAB
  0
TABLE
  2
UCS
  5
7
330
0
100
AcDbSymbolTable
 70
     0
  0
ENDTAB
  0
TABLE
  2
APPID
  5
9
330
0
100
AcDbSymbolTable
 70
     1
  0
APPID
  5
12
330
9
100
AcDbSymbolTableRecord
100
AcDbRegAppTableRecord
  2
ACAD
 70
     0
  0
ENDTAB
  0
TABLE
  2
DIMSTYLE
  5
A
330
0
100
AcDbSymbolTable
 70
     4
100
AcDbDimStyleTable
 71
     1
340
1C8
  0
DIMSTYLE
105
27
330
A
100
AcDbSymbolTableRecord
100
AcDbDimStyleTableRecord
  2
ISO-25
 70
     0
 41
2.5
 42
0.625
 43
3.75
 44
1.25
 73
     0
 74
     0
 77
     1
 78
     8
140
2.5
141
2.5
143
0.03937007874016
147
0.625
171
     3
172
     1
271
     2
272
     2
274
     3
283
     0
284
     8
340
11
  0
DIMSTYLE
105
100
330
A
100
AcDbSymbolTableRecord
100
AcDbDimStyleTableRecord
  2
JIS
 70
     0
 41
2.5
 42
1.0
 43
7.0
 44
1.0
 73
     0
 74
     0
 77
     1
 78
     8
140
2.5
141
0.0
143
0.0394
147
0.0
172
     1
174
     1
175
     1
340
11
  0
DIMSTYLE
105
1C8
330
A
100
AcDbSymbolTableRecord
100
AcDbDimStyleTableRecord
  2
Kyouwa
 70
     0
 41
2.5
 42
0.0
 43
3.75
 44
1.0
 73
     0
 74
     0
 77
     1
 78
     8
140
3.0
141
0.0
143
0.1
146
0.7
147
1.0
171
     3
172
     1
271
     2
272
     2
274
     3
283
     0
284
     8
340
11
341
1C2
342
1C2
  0
DIMSTYLE
105
1DD9
330
A
100
AcDbSymbolTableRecord
100
AcDbDimStyleTableRecord
  2
Standard
 70
     0
340
11
  0
ENDTAB
  0
TABLE
  2
BLOCK_RECORD
  5
1
330
0
100
AcDbSymbolTable
 70
    16
  0
BLOCK_RECORD
  5
1F
102
{ACAD_XDICTIONARY
360
474
102
}
330
1
100
AcDbSymbolTableRecord
100
AcDbBlockTableRecord
  2
*Model_Space
340
22
  0
BLOCK_RECORD
  5
23
102
{ACAD_XDICTIONARY
360
478
102
}
330
1
100
AcDbSymbolTableRecord
100
AcDbBlockTableRecord
  2
*Paper_Space
340
26
  0
BLOCK_RECORD
  5
1B
102
{ACAD_XDICTIONARY
360
476
102
}
330
1
100
AcDbSymbolTableRecord
100
AcDbBlockTableRecord
  2
*Paper_Space0
340
1E
  0
BLOCK_RECORD
  5
101
330
1
100
AcDbSymbolTableRecord
100
AcDbBlockTableRecord
  2
A$C77221E2E
340
0
  0
BLOCK_RECORD
  5
1C2
330
1
100
AcDbSymbolTableRecord
100
AcDbBlockTableRecord
  2
_Open30
340
0
102
{BLKREFS
331
2330
331
2331
331
235F
331
2360
331
23C3
331
23C4
331
23DE
331
23DF
331
2489
331
248A
331
249B
331
249C
331
24AD
331
24AE
331
24B6
331
24B7
331
24BF
331
24C0
331
24D1
331
24D2
331
2645
331
2646
331
267D
331
267E
102
}
  0
BLOCK_RECORD
  5
504
330
1
100
AcDbSymbolTableRecord
100
AcDbBlockTableRecord
  2
A$C56C037E7
340
0
  0
BLOCK_RECORD
  5
1915
330
1
100
AcDbSymbolTableRecord
100
AcDbBlockTableRecord
  2
*D4
340
0
  0
BLOCK_RECORD
  5
1974
330
1
100
AcDbSymbolTableRecord
100
AcDbBlockTableRecord
  2
*D5
340
0
  0
BLOCK_RECORD
  5
1990
330
1
100
AcDbSymbolTableRecord
100
AcDbBlockTableRecord
  2
*D6
340
0
  0
BLOCK_RECORD
  5
199D
330
1
100
AcDbSymbolTableRecord
100
AcDbBlockTableRecord
  2
*D7
340
0
  0
BLOCK_RECORD
  5
19AA
330
1
100
AcDbSymbolTableRecord
100
AcDbBlockTableRecord
  2
*D8
340
0
  0
BLOCK_RECORD
  5
19DE
330
1
100
AcDbSymbolTableRecord
100
AcDbBlockTableRecord
  2
*D9
340
0
  0
BLOCK_RECORD
  5
19EB
330
1
100
AcDbSymbolTableRecord
100
AcDbBlockTableRecord
  2
*D10
340
0
  0
BLOCK_RECORD
  5
19F8
330
1
100
AcDbSymbolTableRecord
100
AcDbBlockTableRecord
  2
*D11
340
0
  0
BLOCK_RECORD
  5
1A05
330
1
100
AcDbSymbolTableRecord
100
AcDbBlockTableRecord
  2
*D12
340
0
  0
BLOCK_RECORD
  5
1D5E
330
1
100
AcDbSymbolTableRecord
100
AcDbBlockTableRecord
  2
*D13
340
0
  0
BLOCK_RECORD
  5
238C
330
1
100
AcDbSymbolTableRecord
100
AcDbBlockTableRecord
  2
*D14
340
0
  0
BLOCK_RECORD
  5
2415
330
1
100
AcDbSymbolTableRecord
100
AcDbBlockTableRecord
  2
*D15
340
0
  0
ENDTAB
  0
ENDSEC
  0
SECTION
  2
BLOCKS
  0
BLOCK
  5
20
330
1F
100
AcDbEntity
  8
0
100
AcDbBlockBegin
  2
*Model_Space
 70
     0
 10
0.0
 20
0.0
 30
0.0
  3
*Model_Space
  1

  0
ENDBLK
  5
21
330
1F
100
AcDbEntity
  8
0
100
AcDbBlockEnd
  0
BLOCK
  5
24
330
23
100
AcDbEntity
 67
     1
  8
0
100
AcDbBlockBegin
  2
*Paper_Space
 70
     0
 10
0.0
 20
0.0
 30
0.0
  3
*Paper_Space
  1

  0
ENDBLK
  5
25
330
23
100
AcDbEntity
 67
     1
  8
0
100
AcDbBlockEnd
  0
BLOCK
  5
1C
330
1B
100
AcDbEntity
  8
0
100
AcDbBlockBegin
  2
*Paper_Space0
 70
     0
 10
0.0
 20
0.0
 30
0.0
  3
*Paper_Space0
  1

  0
ENDBLK
  5
1D
330
1B
100
AcDbEntity
  8
0
100
AcDbBlockEnd
  0
BLOCK
  5
10C
330
101
100
AcDbEntity
  8
0
100
AcDbBlockBegin
  2
A$C77221E2E
 70
     0
 10
0.0
 20
0.0
 30
0.0
  3
A$C77221E2E
  1

  0
TEXT
  5
102
330
101
100
AcDbEntity
  8
4
  6
CENTER
100
AcDbText
 10
-1.383100251097403
 20
-4.957558222773966
 30
0.0
 40
5.5
  1
0
 50
90.0
100
AcDbText
  0
TEXT
  5
103
330
101
100
AcDbEntity
  8
4
  6
CENTER
100
AcDbText
 10
-1.383100251097403
 20
-10.95755822277397
 30
0.0
 40
5.5
  1
9
 50
90.0
100
AcDbText
  0
TEXT
  5
104
330
101
100
AcDbEntity
  8
4
  6
CENTER
100
AcDbText
 10
-1.383100251097403
 20
-16.95755822277397
 30
0.0
 40
5.5
  1
8
 50
90.0
100
AcDbText
  0
TEXT
  5
105
330
101
100
AcDbEntity
  8
4
  6
CENTER
100
AcDbText
 10
-1.383100251097403
 20
-22.95755822277397
 30
0.0
 40
5.5
  1
7
 50
90.0
100
AcDbText
  0
TEXT
  5
106
330
101
100
AcDbEntity
  8
4
  6
CENTER
100
AcDbText
 10
-1.383100251097403
 20
-28.95755822277397
 30
0.0
 40
5.5
  1
6
 50
90.0
100
AcDbText
  0
TEXT
  5
107
330
101
100
AcDbEntity
  8
4
  6
CENTER
100
AcDbText
 10
-1.383100251097403
 20
-34.95755822277397
 30
0.0
 40
5.5
  1
5
 50
90.0
100
AcDbText
  0
TEXT
  5
108
330
101
100
AcDbEntity
  8
4
  6
CENTER
100
AcDbText
 10
-1.383100251097403
 20
-40.95755822277395
 30
0.0
 40
5.5
  1
4
 50
90.0
100
AcDbText
  0
TEXT
  5
109
330
101
100
AcDbEntity
  8
4
  6
CENTER
100
AcDbText
 10
-1.383100251097403
 20
-46.95755822277397
 30
0.0
 40
5.5
  1
3
 50
90.0
100
AcDbText
  0
TEXT
  5
10A
330
101
100
AcDbEntity
  8
4
  6
CENTER
100
AcDbText
 10
-1.383100251097403
 20
-52.95755822277397
 30
0.0
 40
5.5
  1
2
 50
90.0
100
AcDbText
  0
TEXT
  5
10B
330
101
100
AcDbEntity
  8
4
  6
CENTER
100
AcDbText
 10
-1.383100251097403
 20
-58.95755822277397
 30
0.0
 40
5.5
  1
1
 50
90.0
100
AcDbText
  0
ENDBLK
  5
10D
330
101
100
AcDbEntity
  8
0
100
AcDbBlockEnd
  0
BLOCK
  5
1C6
330
1C2
100
AcDbEntity
  8
0
100
AcDbBlockBegin
  2
_Open30
 70
     0
 10
0.0
 20
0.0
 30
0.0
  3
_Open30
  1

  0
LINE
  5
1C3
330
1C2
100
AcDbEntity
  8
0
  6
ByBlock
 62
     0
370
    -2
100
AcDbLine
 10
-1.0
 20
0.26794919
 30
0.0
 11
0.0
 21
0.0
 31
0.0
  0
LINE
  5
1C4
330
1C2
100
AcDbEntity
  8
0
  6
ByBlock
 62
     0
370
    -2
100
AcDbLine
 10
0.0
 20
0.0
 30
0.0
 11
-1.0
 21
-0.26794919
 31
0.0
  0
LINE
  5
1C5
330
1C2
100
AcDbEntity
  8
0
  6
ByBlock
 62
     0
370
    -2
100
AcDbLine
 10
0.0
 20
0.0
 30
0.0
 11
-1.0
 21
0.0
 31
0.0
  0
ENDBLK
  5
1C7
330
1C2
100
AcDbEntity
  8
0
100
AcDbBlockEnd
  0
BLOCK
  5
5AA
330
504
100
AcDbEntity
  8
0
100
AcDbBlockBegin
  2
A$C56C037E7
 70
     0
 10
0.0
 20
0.0
 30
0.0
  3
A$C56C037E7
  1

  0
LINE
  5
505
330
504
100
AcDbEntity
  8
0
100
AcDbLine
 10
420.0
 20
0.0
 30
0.0
 11
410.0
 21
0.0
 31
0.0
  0
LINE
  5
506
330
504
100
AcDbEntity
  8
0
100
AcDbLine
 10
0.0
 20
297.0
 30
0.0
 11
0.0
 21
287.0
 31
0.0
  0
LINE
  5
507
330
504
100
AcDbEntity
  8
0
100
AcDbLine
 10
420.0
 20
297.0
 30
0.0
 11
420.0
 21
287.0
 31
0.0
  0
LINE
  5
508
330
504
100
AcDbEntity
  8
0
100
AcDbLine
 10
0.0
 20
297.0
 30
0.0
 11
25.0
 21
297.0
 31
0.0
  0
LINE
  5
509
330
504
100
AcDbEntity
  8
3-線
 62
     4
100
AcDbLine
 10
26.0
 20
287.0
 30
0.0
 11
410.0
 21
287.0
 31
0.0
  0
LINE
  5
50A
330
504
100
AcDbEntity
  8
3-線
100
AcDbLine
 10
26.0
 20
287.0
 30
0.0
 11
26.0
 21
10.0
 31
0.0
  0
LINE
  5
50B
330
504
100
AcDbEntity
  8
3-線
100
AcDbLine
 10
26.0
 20
10.0
 30
0.0
 11
410.0
 21
10.0
 31
0.0
  0
LINE
  5
50C
330
504
100
AcDbEntity
  8
3-線
100
AcDbLine
 10
410.0
 20
287.0
 30
0.0
 11
410.0
 21
10.0
 31
0.0
  0
LINE
  5
50D
330
504
100
AcDbEntity
  8
0
100
AcDbLine
 10
410.0
 20
297.0
 30
0.0
 11
420.0
 21
297.0
 31
0.0
  0
LINE
  5
50E
330
504
100
AcDbEntity
  8
0
100
AcDbLine
 10
420.0
 20
10.0
 30
0.0
 11
420.0
 21
0.0
 31
0.0
  0
LINE
  5
50F
330
504
100
AcDbEntity
  8
0
100
AcDbLine
 10
15.0
 20
0.0
 30
0.0
 11
0.0
 21
0.0
 31
0.0
  0
LINE
  5
510
330
504
100
AcDbEntity
  8
0
100
AcDbLine
 10
0.0
 20
10.0
 30
0.0
 11
0.0
 21
0.0
 31
0.0
  0
LINE
  5
511
330
504
100
AcDbEntity
  8
3-線
 62
     4
100
AcDbLine
 10
364.0
 20
254.5
 30
0.0
 11
410.0
 21
254.5
 31
0.0
  0
LINE
  5
512
330
504
100
AcDbEntity
  8
3-線
100
AcDbLine
 10
364.0
 20
287.0
 30
0.0
 11
364.0
 21
254.5
 31
0.0
  0
LINE
  5
513
330
504
100
AcDbEntity
  8
3-線
100
AcDbLine
 10
402.0
 20
254.5
 30
0.0
 11
402.0
 21
194.5
 31
0.0
  0
LINE
  5
514
330
504
100
AcDbEntity
  8
3-線
 62
     4
100
AcDbLine
 10
402.0
 20
194.5
 30
0.0
 11
410.0
 21
194.5
 31
0.0
  0
LINE
  5
515
330
504
100
AcDbEntity
  8
3-線
 62
     4
100
AcDbLine
 10
402.0
 20
200.5
 30
0.0
 11
410.0
 21
200.5
 31
0.0
  0
LINE
  5
516
330
504
100
AcDbEntity
  8
3-線
 62
     4
100
AcDbLine
 10
402.0
 20
206.5
 30
0.0
 11
410.0
 21
206.5
 31
0.0
  0
LINE
  5
517
330
504
100
AcDbEntity
  8
3-線
 62
     4
100
AcDbLine
 10
402.0
 20
212.5
 30
0.0
 11
410.0
 21
212.5
 31
0.0
  0
LINE
  5
518
330
504
100
AcDbEntity
  8
3-線
 62
     4
100
AcDbLine
 10
402.0
 20
218.5
 30
0.0
 11
410.0
 21
218.5
 31
0.0
  0
LINE
  5
519
330
504
100
AcDbEntity
  8
3-線
 62
     4
100
AcDbLine
 10
402.0
 20
224.5
 30
0.0
 11
410.0
 21
224.5
 31
0.0
  0
LINE
  5
51A
330
504
100
AcDbEntity
  8
3-線
 62
     4
100
AcDbLine
 10
402.0
 20
230.5
 30
0.0
 11
410.0
 21
230.5
 31
0.0
  0
LINE
  5
51B
330
504
100
AcDbEntity
  8
3-線
 62
     4
100
AcDbLine
 10
402.0
 20
236.5
 30
0.0
 11
410.0
 21
236.5
 31
0.0
  0
LINE
  5
51C
330
504
100
AcDbEntity
  8
3-線
 62
     4
100
AcDbLine
 10
402.0
 20
242.5
 30
0.0
 11
410.0
 21
242.5
 31
0.0
  0
LINE
  5
51D
330
504
100
AcDbEntity
  8
3-線
 62
     4
100
AcDbLine
 10
402.0
 20
248.5
 30
0.0
 11
410.0
 21
248.5
 31
0.0
  0
LINE
  5
51E
330
504
100
AcDbEntity
  8
2-線
100
AcDbLine
 10
370.0
 20
287.0
 30
0.0
 11
370.0
 21
254.5
 31
0.0
  0
LINE
  5
51F
330
504
100
AcDbEntity
  8
2-線
100
AcDbLine
 10
397.8
 20
287.0
 30
0.0
 11
397.8
 21
254.5
 31
0.0
  0
LINE
  5
520
330
504
100
AcDbEntity
  8
2-線
100
AcDbLine
 10
370.0
 20
280.05
 30
0.0
 11
410.0
 21
280.05
 31
0.0
  0
LINE
  5
521
330
504
100
AcDbEntity
  8
2-線
100
AcDbLine
 10
41.0
 20
287.0
 30
0.0
 11
41.0
 21
269.0
 31
0.0
  0
LINE
  5
522
330
504
100
AcDbEntity
  8
2-線
100
AcDbLine
 10
81.0
 20
287.0
 30
0.0
 11
81.0
 21
269.0
 31
0.0
  0
LINE
  5
523
330
504
100
AcDbEntity
  8
2-線
100
AcDbLine
 10
26.0
 20
269.0
 30
0.0
 11
136.0
 21
269.0
 31
0.0
  0
LINE
  5
524
330
504
100
AcDbEntity
  8
2-線
100
AcDbLine
 10
96.0
 20
287.0
 30
0.0
 11
96.0
 21
269.0
 31
0.0
  0
LINE
  5
525
330
504
100
AcDbEntity
  8
2-線
100
AcDbLine
 10
136.0
 20
287.0
 30
0.0
 11
136.0
 21
269.0
 31
0.0
  0
LINE
  5
526
330
504
100
AcDbEntity
  8
2-線
100
AcDbLine
 10
36.0
 20
22.0
 30
0.0
 11
36.0
 21
10.0
 31
0.0
  0
LINE
  5
527
330
504
100
AcDbEntity
  8
2-線
100
AcDbLine
 10
51.0
 20
22.0
 30
0.0
 11
51.0
 21
10.0
 31
0.0
  0
LINE
  5
528
330
504
100
AcDbEntity
  8
2-線
100
AcDbLine
 10
61.0
 20
22.0
 30
0.0
 11
61.0
 21
10.0
 31
0.0
  0
LINE
  5
529
330
504
100
AcDbEntity
  8
2-線
100
AcDbLine
 10
111.0
 20
22.0
 30
0.0
 11
111.0
 21
10.0
 31
0.0
  0
LINE
  5
52A
330
504
100
AcDbEntity
  8
2-線
100
AcDbLine
 10
26.0
 20
16.0
 30
0.0
 11
111.0
 21
16.0
 31
0.0
  0
LINE
  5
52B
330
504
100
AcDbEntity
  8
2-線
100
AcDbLine
 10
26.0
 20
22.0
 30
0.0
 11
111.0
 21
22.0
 31
0.0
  0
LINE
  5
52C
330
504
100
AcDbEntity
  8
2-線
100
AcDbLine
 10
207.0
 20
22.0
 30
0.0
 11
410.0
 21
22.0
 31
0.0
  0
LINE
  5
52D
330
504
100
AcDbEntity
  8
2-線
100
AcDbLine
 10
207.0
 20
34.0
 30
0.0
 11
410.0
 21
34.0
 31
0.0
  0
LINE
  5
52E
330
504
100
AcDbEntity
  8
2-線
100
AcDbLine
 10
247.0
 20
40.0
 30
0.0
 11
410.0
 21
40.0
 31
0.0
  0
LINE
  5
52F
330
504
100
AcDbEntity
  8
2-線
100
AcDbLine
 10
247.0
 20
46.0
 30
0.0
 11
410.0
 21
46.0
 31
0.0
  0
LINE
  5
530
330
504
100
AcDbEntity
  8
2-線
100
AcDbLine
 10
247.0
 20
76.0
 30
0.0
 11
247.0
 21
34.0
 31
0.0
  0
LINE
  5
531
330
504
100
AcDbEntity
  8
2-線
100
AcDbLine
 10
280.0
 20
34.0
 30
0.0
 11
280.0
 21
22.0
 31
0.0
  0
LINE
  5
532
330
504
100
AcDbEntity
  8
2-線
100
AcDbLine
 10
295.0
 20
34.0
 30
0.0
 11
295.0
 21
10.0
 31
0.0
  0
LINE
  5
533
330
504
100
AcDbEntity
  8
2-線
100
AcDbLine
 10
300.0
 20
34.0
 30
0.0
 11
300.0
 21
10.0
 31
0.0
  0
LINE
  5
534
330
504
100
AcDbEntity
  8
2-線
100
AcDbLine
 10
257.0
 20
76.0
 30
0.0
 11
257.0
 21
34.0
 31
0.0
  0
LINE
  5
535
330
504
100
AcDbEntity
  8
2-線
100
AcDbLine
 10
345.0
 20
34.0
 30
0.0
 11
345.0
 21
10.0
 31
0.0
  0
LINE
  5
536
330
504
100
AcDbEntity
  8
2-線
100
AcDbLine
 10
350.0
 20
34.0
 30
0.0
 11
350.0
 21
10.0
 31
0.0
  0
LINE
  5
537
330
504
100
AcDbEntity
  8
2-線
100
AcDbLine
 10
307.0
 20
76.0
 30
0.0
 11
307.0
 21
34.0
 31
0.0
  0
LINE
  5
538
330
504
100
AcDbEntity
  8
2-線
100
AcDbLine
 10
340.0
 20
76.00000000000003
 30
0.0
 11
340.0
 21
34.0
 31
0.0
  0
LINE
  5
539
330
504
100
AcDbEntity
  8
2-線
100
AcDbLine
 10
355.0
 20
76.0
 30
0.0
 11
355.0
 21
34.0
 31
0.0
  0
LINE
  5
53A
330
504
100
AcDbEntity
  8
2-線
100
AcDbLine
 10
375.0
 20
76.00000000000003
 30
0.0
 11
375.0
 21
34.0
 31
0.0
  0
TEXT
  5
53B
330
504
100
AcDbEntity
  8
2-線
100
AcDbText
 10
367.0
 20
285.59
 30
0.0
 40
2.799999999999998
  1
削り加工部一般公差
 41
1.199999999999999
  7
縦
 72
     4
 11
367.0
 21
270.75
 31
0.0
100
AcDbText
  0
TEXT
  5
53C
330
504
100
AcDbEntity
  8
2-線
100
AcDbText
 10
372.676
 20
284.1125000000001
 30
0.0
 40
2.299999999999998
  1
呼び寸法ノ区分
 41
1.199999999999999
 72
     4
 11
383.9
 21
285.2625000000001
 31
0.0
100
AcDbText
  0
TEXT
  5
53D
330
504
100
AcDbEntity
  8
2-線
100
AcDbText
 10
374.424
 20
280.6375
 30
0.0
 40
2.299999999999998
  1
単位　　ｍｍ
 41
1.199999999999999
 72
     4
 11
383.9
 21
281.7875
 31
0.0
100
AcDbText
  0
TEXT
  5
53E
330
504
100
AcDbEntity
  8
2-線
100
AcDbText
 10
401.2166666666665
 20
284.1125000000001
 30
0.0
 40
2.299999999999998
  1
JIS
 72
     4
 11
403.8999999999998
 21
285.2625000000001
 31
0.0
100
AcDbText
  0
TEXT
  5
53F
330
504
100
AcDbEntity
  8
2-線
100
AcDbText
 10
398.7633333333332
 20
280.6375
 30
0.0
 40
2.299999999999998
  1
（中級）
 72
     4
 11
403.8999999999998
 21
281.7875
 31
0.0
100
AcDbText
  0
TEXT
  5
540
330
504
100
AcDbEntity
  8
2-線
100
AcDbText
 10
370.5
 20
255.175
 30
0.0
 40
2.299999999999998
  1
１０００を超え２０００以下
 41
0.75
 11
370.5
 21
256.325
 31
0.0
100
AcDbText
 73
     2
  0
TEXT
  5
541
330
504
100
AcDbEntity
  8
2-線
100
AcDbText
 10
399.2079999999999
 20
255.175
 30
0.0
 40
2.299999999999998
  1
±１．２
 41
0.9
 72
     1
 11
403.8999999999998
 21
256.325
 31
0.0
100
AcDbText
 73
     2
  0
TEXT
  5
542
330
504
100
AcDbEntity
  8
2-線
100
AcDbText
 10
408.75
 20
250.125
 30
0.0
 40
5.5
  1
0
 50
90.0
 72
     4
 11
406.0
 21
251.5
 31
0.0
100
AcDbText
  0
TEXT
  5
543
330
504
100
AcDbEntity
  8
2-線
100
AcDbText
 10
408.75
 20
243.6666666666666
 30
0.0
 40
5.5
  1
9
 50
90.0
 72
     4
 11
406.0
 21
245.5
 31
0.0
100
AcDbText
  0
TEXT
  5
544
330
504
100
AcDbEntity
  8
2-線
100
AcDbText
 10
408.75
 20
237.6666666666666
 30
0.0
 40
5.5
  1
8
 50
90.0
 72
     4
 11
406.0
 21
239.5
 31
0.0
100
AcDbText
  0
TEXT
  5
545
330
504
100
AcDbEntity
  8
2-線
100
AcDbText
 10
408.75
 20
231.6666666666666
 30
0.0
 40
5.5
  1
7
 50
90.0
 72
     4
 11
406.0
 21
233.5
 31
0.0
100
AcDbText
  0
TEXT
  5
546
330
504
100
AcDbEntity
  8
2-線
100
AcDbText
 10
408.75
 20
225.6666666666667
 30
0.0
 40
5.5
  1
6
 50
90.0
 72
     4
 11
406.0
 21
227.5
 31
0.0
100
AcDbText
  0
TEXT
  5
547
330
504
100
AcDbEntity
  8
2-線
100
AcDbText
 10
408.75
 20
219.6666666666667
 30
0.0
 40
5.5
  1
5
 50
90.0
 72
     4
 11
406.0
 21
221.5
 31
0.0
100
AcDbText
  0
TEXT
  5
548
330
504
100
AcDbEntity
  8
2-線
100
AcDbText
 10
408.75
 20
213.6666666666667
 30
0.0
 40
5.5
  1
4
 50
90.0
 72
     4
 11
406.0
 21
215.5
 31
0.0
100
AcDbText
  0
TEXT
  5
549
330
504
100
AcDbEntity
  8
2-線
100
AcDbText
 10
408.75
 20
207.6666666666667
 30
0.0
 40
5.5
  1
3
 50
90.0
 72
     4
 11
406.0
 21
209.5
 31
0.0
100
AcDbText
  0
TEXT
  5
54A
330
504
100
AcDbEntity
  8
2-線
100
AcDbText
 10
408.75
 20
201.6666666666667
 30
0.0
 40
5.5
  1
2
 50
90.0
 72
     4
 11
406.0
 21
203.5
 31
0.0
100
AcDbText
  0
TEXT
  5
54B
330
504
100
AcDbEntity
  8
2-線
100
AcDbText
 10
408.75
 20
196.5833333333333
 30
0.0
 40
5.5
  1
1
 50
90.0
 72
     4
 11
406.0
 21
197.5
 31
0.0
100
AcDbText
  0
TEXT
  5
54C
330
504
100
AcDbEntity
  8
2-線
100
AcDbText
 10
31.63333333333333
 20
280.5000000000001
 30
0.0
 40
4.0
  1
熱
 72
     4
 11
33.5
 21
282.5000000000001
 31
0.0
100
AcDbText
  0
TEXT
  5
54D
330
504
100
AcDbEntity
  8
2-線
100
AcDbText
 10
28.63333333333333
 20
271.5000000000001
 30
0.0
 40
4.0
  1
処
 72
     4
 11
30.5
 21
273.5000000000001
 31
0.0
100
AcDbText
  0
TEXT
  5
54E
330
504
100
AcDbEntity
  8
2-線
100
AcDbText
 10
34.63333333333333
 20
271.6333333333334
 30
0.0
 40
4.0
  1
理
 72
     4
 11
36.5
 21
273.5000000000001
 31
0.0
100
AcDbText
  0
TEXT
  5
54F
330
504
100
AcDbEntity
  8
2-線
100
AcDbText
 10
83.63333333333335
 20
271.5000000000001
 30
0.0
 40
4.0
  1
処
 72
     4
 11
85.5
 21
273.5000000000001
 31
0.0
100
AcDbText
  0
TEXT
  5
550
330
504
100
AcDbEntity
  8
2-線
100
AcDbText
 10
89.63333333333334
 20
271.6333333333334
 30
0.0
 40
4.0
  1
理
 72
     4
 11
91.5
 21
273.5000000000001
 31
0.0
100
AcDbText
  0
TEXT
  5
551
330
504
100
AcDbEntity
  8
2-線
100
AcDbText
 10
83.63333333333335
 20
280.4999999999999
 30
0.0
 40
4.0
  1
表
 72
     4
 11
85.50000000000002
 21
282.4999999999999
 31
0.0
100
AcDbText
  0
TEXT
  5
552
330
504
100
AcDbEntity
  8
2-線
100
AcDbText
 10
89.63333333333338
 20
280.6333333333332
 30
0.0
 40
4.0
  1
面
 72
     4
 11
91.50000000000003
 21
282.4999999999999
 31
0.0
100
AcDbText
  0
TEXT
  5
553
330
504
100
AcDbEntity
  8
2-線
100
AcDbText
 10
27.8
 20
11.5
 30
0.0
 40
3.0
  1
符号
 72
     4
 11
31.0
 21
13.0
 31
0.0
100
AcDbText
  0
TEXT
  5
554
330
504
100
AcDbEntity
  8
2-線
100
AcDbText
 10
38.7
 20
11.5
 30
0.0
 40
3.0
  1
年月日
 72
     4
 11
43.5
 21
13.0
 31
0.0
100
AcDbText
  0
TEXT
  5
555
330
504
100
AcDbEntity
  8
2-線
100
AcDbText
 10
52.9
 20
11.5
 30
0.0
 40
3.0
  1
担当
 72
     4
 11
56.0
 21
13.0
 31
0.0
100
AcDbText
  0
TEXT
  5
556
330
504
100
AcDbEntity
  8
2-線
100
AcDbText
 10
73.79999999999999
 20
11.5
 30
0.0
 40
3.0
  1
改　正　記　事
 72
     4
 11
86.0
 21
13.0
 31
0.0
100
AcDbText
  0
TEXT
  5
557
330
504
100
AcDbEntity
  8
3-線
100
AcDbText
 10
213.4333333333334
 20
12.5
 30
0.0
 40
7.0
  1
協和工業株式会社
 41
1.149999999999999
 72
     4
 11
251.0
 21
16.0
 31
0.0
100
AcDbText
  0
TEXT
  5
558
330
504
100
AcDbEntity
  8
2-線
100
AcDbText
 10
248.08
 20
29.6
 30
0.0
 40
3.0
  1
Ｍ．Ｙ
 41
0.8
 72
     4
 11
252.0
 21
31.0
 31
0.0
100
AcDbText
  0
TEXT
  5
559
330
504
100
AcDbEntity
  8
2-線
100
AcDbText
 10
246.56
 20
23.6
 30
0.0
 40
3.0
  1
０１，０８，０１
 41
0.4
 72
     4
 11
252.0
 21
25.0
 31
0.0
100
AcDbText
  0
TEXT
  5
55A
330
504
100
AcDbEntity
  8
2-線
100
AcDbText
 10
265.8
 20
26.0
 30
0.0
 40
4.0
  1
1:1
 41
1.199999999999999
 72
     4
 11
269.0
 21
28.0
 31
0.0
100
AcDbText
  0
TEXT
  5
55B
330
504
100
AcDbEntity
  8
2-線
100
AcDbText
 10
282.5
 20
26.5
 30
0.0
 40
3.0
  1
三角法
 72
     4
 11
287.5
 21
28.0
 31
0.0
100
AcDbText
  0
TEXT
  5
55C
330
504
100
AcDbEntity
  8
2-線
100
AcDbText
 10
247.9
 20
35.6
 30
0.0
 40
3.0
  1
Ｎｏ．
 72
     4
 11
252.0
 21
37.0
 31
0.0
100
AcDbText
  0
LINE
  5
55D
330
504
100
AcDbEntity
  8
2-線
100
AcDbLine
 10
275.0
 20
34.0
 30
0.0
 11
275.0
 21
22.0
 31
0.0
  0
LINE
  5
55E
330
504
100
AcDbEntity
  8
2-線
100
AcDbLine
 10
263.0
 20
34.0
 30
0.0
 11
263.0
 21
22.0
 31
0.0
  0
LINE
  5
55F
330
504
100
AcDbEntity
  8
2-線
100
AcDbLine
 10
258.0
 20
34.0
 30
0.0
 11
258.0
 21
22.0
 31
0.0
  0
LINE
  5
560
330
504
100
AcDbEntity
  8
2-線
100
AcDbLine
 10
246.0
 20
34.0
 30
0.0
 11
246.0
 21
22.0
 31
0.0
  0
LINE
  5
561
330
504
100
AcDbEntity
  8
2-線
100
AcDbLine
 10
241.0
 20
34.0
 30
0.0
 11
241.0
 21
22.0
 31
0.0
  0
LINE
  5
562
330
504
100
AcDbEntity
  8
2-線
100
AcDbLine
 10
229.0
 20
34.0
 30
0.0
 11
229.0
 21
22.0
 31
0.0
  0
LINE
  5
563
330
504
100
AcDbEntity
  8
2-線
100
AcDbLine
 10
224.0
 20
34.0
 30
0.0
 11
224.0
 21
22.0
 31
0.0
  0
LINE
  5
564
330
504
100
AcDbEntity
  8
2-線
100
AcDbLine
 10
212.0
 20
34.0
 30
0.0
 11
212.0
 21
22.0
 31
0.0
  0
LINE
  5
565
330
504
100
AcDbEntity
  8
2-線
100
AcDbLine
 10
207.0
 20
34.0
 30
0.0
 11
207.0
 21
10.0
 31
0.0
  0
TEXT
  5
566
330
504
100
AcDbEntity
  8
2-線
100
AcDbText
 10
302.0
 20
26.25
 30
0.0
 40
3.5
  1
  トキコ（株）   殿
 11
302.0
 21
28.0
 31
0.0
100
AcDbText
 73
     2
  0
TEXT
  5
567
330
504
100
AcDbEntity
  8
2-線
100
AcDbText
 10
273.3
 20
35.5
 30
0.0
 40
3.0
  1
図　　　番
 72
     4
 11
282.0
 21
37.0
 31
0.0
100
AcDbText
  0
TEXT
  5
568
330
504
100
AcDbEntity
  8
2-線
100
AcDbText
 10
316.8
 20
35.5
 30
0.0
 40
3.0
  1
品　　名
 72
     4
 11
323.5
 21
37.0
 31
0.0
100
AcDbText
  0
TEXT
  5
569
330
504
100
AcDbEntity
  8
2-線
100
AcDbText
 10
344.3
 20
35.5
 30
0.0
 40
3.0
  1
個数
 72
     4
 11
347.5
 21
37.0
 31
0.0
100
AcDbText
  0
TEXT
  5
56A
330
504
100
AcDbEntity
  8
2-線
100
AcDbText
 10
360.0
 20
35.5
 30
0.0
 40
3.0
  1
材　質
 72
     4
 11
365.0
 21
37.0
 31
0.0
100
AcDbText
  0
TEXT
  5
56B
330
504
100
AcDbEntity
  8
2-線
100
AcDbText
 10
383.9
 20
35.5
 30
0.0
 40
3.0
  1
備　　　考
 72
     4
 11
392.5
 21
37.0
 31
0.0
100
AcDbText
  0
TEXT
  5
56C
330
504
100
AcDbEntity
  8
2-線
100
AcDbText
 10
352.0
 20
29.25
 30
0.0
 40
3.5
  1
 ８型　中間軸付き
 11
352.0
 21
31.0
 31
0.0
100
AcDbText
 73
     2
  0
TEXT
  5
56D
330
504
100
AcDbEntity
  8
2-線
100
AcDbText
 10
352.0
 20
23.25
 30
0.0
 40
3.5
  1
ユニバーサル･ジョイント
 11
352.0
 21
25.0
 31
0.0
100
AcDbText
 73
     2
  0
TEXT
  5
56E
330
504
100
AcDbEntity
  8
2-線
100
AcDbText
 10
352.0
 20
14.0
 30
0.0
 40
4.0
  1
ＳＰ－０８－００Ｃ－００
 41
0.85
 11
352.0
 21
16.0
 31
0.0
100
AcDbText
 73
     2
  0
TEXT
  5
56F
330
504
100
AcDbEntity
  8
2-線
100
AcDbText
 10
340.6
 20
41.5
 30
0.0
 40
3.0
  1
１ｓｅｔ
 72
     4
 11
347.5
 21
43.0
 31
0.0
100
AcDbText
  0
TEXT
  5
570
330
504
100
AcDbEntity
  8
2-線
100
AcDbText
 10
250.7
 20
41.5
 30
0.0
 40
3.0
  1
１
 72
     4
 11
252.0
 21
43.0
 31
0.0
100
AcDbText
  0
TEXT
  5
571
330
504
100
AcDbEntity
  8
2-線
100
AcDbText
 10
259.0
 20
41.5
 30
0.0
 40
3.0
  1
ＳＣ－０８－００Ｃ
 41
0.9
 11
259.0
 21
43.0
 31
0.0
100
AcDbText
 73
     2
  0
TEXT
  5
572
330
504
100
AcDbEntity
  8
2-線
100
AcDbText
 10
309.0
 20
41.5
 30
0.0
 40
3.0
  1
Ｕ．ジョイント
 41
0.9
 11
309.0
 21
43.0
 31
0.0
100
AcDbText
 73
     2
  0
TEXT
  5
573
330
504
100
AcDbEntity
  8
2-線
100
AcDbText
 10
357.0
 20
41.5
 30
0.0
 40
3.0
  1
ＳＣＭ４１５
 41
0.8
 11
357.0
 21
43.0
 31
0.0
100
AcDbText
 73
     2
  0
TEXT
  5
574
330
504
100
AcDbEntity
  8
2-線
100
AcDbText
 10
377.0
 20
41.5
 30
0.0
 40
3.0
  1
浸炭焼き入れ
 11
377.0
 21
43.0
 31
0.0
100
AcDbText
 73
     2
  0
TEXT
  5
575
330
504
100
AcDbEntity
  8
2-線
100
AcDbText
 10
277.5
 20
32.76
 30
0.0
 40
2.799999999999998
  1
投影法
 41
0.9
  7
縦
 72
     4
 11
277.5
 21
28.0
 31
0.0
100
AcDbText
  0
TEXT
  5
576
330
504
100
AcDbEntity
  8
2-線
100
AcDbText
 10
226.5
 20
32.76
 30
0.0
 40
2.799999999999998
  1
検　図
 41
0.9
  7
縦
 72
     4
 11
226.5
 21
28.0
 31
0.0
100
AcDbText
  0
TEXT
  5
577
330
504
100
AcDbEntity
  8
2-線
100
AcDbText
 10
243.5
 20
32.76
 30
0.0
 40
2.799999999999998
  1
製　図
 41
0.9
  7
縦
 72
     4
 11
243.5
 21
28.0
 31
0.0
100
AcDbText
  0
TEXT
  5
578
330
504
100
AcDbEntity
  8
2-線
100
AcDbText
 10
260.5
 20
32.85333333333333
 30
0.0
 40
2.799999999999998
  1
尺　度
 41
0.9
  7
縦
 72
     4
 11
260.5
 21
28.0
 31
0.0
100
AcDbText
  0
TEXT
  5
579
330
504
100
AcDbEntity
  8
2-線
100
AcDbText
 10
297.5
 20
32.76
 30
0.0
 40
2.799999999999998
  1
客　先
 41
0.9
  7
縦
 72
     4
 11
297.5
 21
28.0
 31
0.0
100
AcDbText
  0
TEXT
  5
57A
330
504
100
AcDbEntity
  8
2-線
100
AcDbText
 10
297.5
 20
20.76
 30
0.0
 40
2.799999999999998
  1
整　番
 41
0.9
  7
縦
 72
     4
 11
297.5
 21
16.0
 31
0.0
100
AcDbText
  0
TEXT
  5
57B
330
504
100
AcDbEntity
  8
2-線
100
AcDbText
 10
347.5
 20
32.76
 30
0.0
 40
2.799999999999998
  1
名　称
 41
0.9
  7
縦
 72
     4
 11
347.5
 21
28.0
 31
0.0
100
AcDbText
  0
TEXT
  5
57C
330
504
100
AcDbEntity
  8
2-線
100
AcDbText
 10
347.5
 20
20.85333333333333
 30
0.0
 40
2.799999999999998
  1
図　番
 41
0.9
  7
縦
 72
     4
 11
347.5
 21
16.0
 31
0.0
100
AcDbText
  0
TEXT
  5
57D
330
504
100
AcDbEntity
  8
2-線
100
AcDbText
 10
209.5
 20
32.76
 30
0.0
 40
2.799999999999998
  1
認　可
 41
0.9
  7
縦
 72
     4
 11
209.5
 21
28.0
 31
0.0
100
AcDbText
  0
LINE
  5
57E
330
504
100
AcDbEntity
  8
2-線
100
AcDbLine
 10
370.0
 20
283.525
 30
0.0
 11
410.0
 21
283.525
 31
0.0
  0
TEXT
  5
57F
330
504
100
AcDbEntity
  8
2-線
100
AcDbText
 10
399.2079999999999
 20
258.825
 30
0.0
 40
2.299999999999998
  1
±０．８
 41
0.9
 72
     1
 11
403.8999999999998
 21
259.975
 31
0.0
100
AcDbText
 73
     2
  0
TEXT
  5
580
330
504
100
AcDbEntity
  8
2-線
100
AcDbText
 10
399.2079999999999
 20
262.475
 30
0.0
 40
2.299999999999998
  1
±０．５
 41
0.9
 72
     1
 11
403.8999999999998
 21
263.6249999999999
 31
0.0
100
AcDbText
 73
     2
  0
TEXT
  5
581
330
504
100
AcDbEntity
  8
2-線
100
AcDbText
 10
399.2079999999999
 20
266.1249999999999
 30
0.0
 40
2.299999999999998
  1
±０．３
 41
0.9
 72
     1
 11
403.8999999999998
 21
267.2749999999999
 31
0.0
100
AcDbText
 73
     2
  0
TEXT
  5
582
330
504
100
AcDbEntity
  8
2-線
100
AcDbText
 10
399.2079999999999
 20
269.7749999999999
 30
0.0
 40
2.299999999999998
  1
±０．２
 41
0.9
 72
     1
 11
403.8999999999998
 21
270.9249999999999
 31
0.0
100
AcDbText
 73
     2
  0
TEXT
  5
583
330
504
100
AcDbEntity
  8
2-線
100
AcDbText
 10
399.4839999999999
 20
273.4249999999999
 30
0.0
 40
2.299999999999998
  1
±０．１
 41
0.9
 72
     1
 11
403.8999999999998
 21
274.5749999999999
 31
0.0
100
AcDbText
 73
     2
  0
TEXT
  5
584
330
504
100
AcDbEntity
  8
2-線
100
AcDbText
 10
399.4839999999999
 20
277.0749999999999
 30
0.0
 40
2.299999999999998
  1
±０．１
 41
0.9
 72
     1
 11
403.8999999999998
 21
278.2249999999999
 31
0.0
100
AcDbText
 73
     2
  0
TEXT
  5
585
330
504
100
AcDbEntity
  8
2-線
100
AcDbText
 10
370.5
 20
258.825
 30
0.0
 40
2.299999999999998
  1
　３１５を超え１０００以下
 41
0.75
 11
370.5
 21
259.975
 31
0.0
100
AcDbText
 73
     2
  0
TEXT
  5
586
330
504
100
AcDbEntity
  8
2-線
100
AcDbText
 10
370.5
 20
262.475
 30
0.0
 40
2.299999999999998
  1
　１２０を超え　３１５以下
 41
0.75
 11
370.5
 21
263.6249999999999
 31
0.0
100
AcDbText
 73
     2
  0
TEXT
  5
587
330
504
100
AcDbEntity
  8
2-線
100
AcDbText
 10
370.5
 20
266.1249999999999
 30
0.0
 40
2.299999999999998
  1
　　３０を超え　１２０以下
 41
0.75
 11
370.5
 21
267.2749999999999
 31
0.0
100
AcDbText
 73
     2
  0
TEXT
  5
588
330
504
100
AcDbEntity
  8
2-線
100
AcDbText
 10
370.5
 20
269.7749999999999
 30
0.0
 40
2.299999999999998
  1
　　　６を超え　　３０以下
 41
0.75
 11
370.5
 21
270.9249999999999
 31
0.0
100
AcDbText
 73
     2
  0
TEXT
  5
589
330
504
100
AcDbEntity
  8
2-線
100
AcDbText
 10
370.5
 20
273.4249999999999
 30
0.0
 40
2.299999999999998
  1
　　　３を超え　　　６以下
 41
0.75
 11
370.5
 21
274.5749999999999
 31
0.0
100
AcDbText
 73
     2
  0
TEXT
  5
58A
330
504
100
AcDbEntity
  8
2-線
100
AcDbText
 10
370.5
 20
277.0749999999999
 30
0.0
 40
2.299999999999998
  1
  ０．５を超え　　　３以下
 41
0.75
 11
370.5
 21
278.2249999999999
 31
0.0
100
AcDbText
 73
     2
  0
LINE
  5
58B
330
504
100
AcDbEntity
  8
2-線
100
AcDbLine
 10
247.0
 20
52.0
 30
0.0
 11
410.0
 21
52.0
 31
0.0
  0
TEXT
  5
58C
330
504
100
AcDbEntity
  8
2-線
100
AcDbText
 10
259.0
 20
47.5
 30
0.0
 40
3.0
  1
ＳＣ－０８－００Ｃ
 41
0.9
 11
259.0
 21
49.0
 31
0.0
100
AcDbText
 73
     2
  0
TEXT
  5
58D
330
504
100
AcDbEntity
  8
2-線
100
AcDbText
 10
250.6
 20
47.5
 30
0.0
 40
3.0
  1
２
 72
     4
 11
252.0
 21
49.0
 31
0.0
100
AcDbText
  0
TEXT
  5
58E
330
504
100
AcDbEntity
  8
2-線
100
AcDbText
 10
309.0
 20
47.5
 30
0.0
 40
3.0
  1
Ｕ．ジョイント
 41
0.9
 11
309.0
 21
49.0
 31
0.0
100
AcDbText
 73
     2
  0
TEXT
  5
58F
330
504
100
AcDbEntity
  8
2-線
100
AcDbText
 10
357.0
 20
47.5
 30
0.0
 40
3.0
  1
ＳＣＭ４１５
 41
0.8
 11
357.0
 21
49.0
 31
0.0
100
AcDbText
 73
     2
  0
TEXT
  5
590
330
504
100
AcDbEntity
  8
2-線
100
AcDbText
 10
340.6
 20
47.5
 30
0.0
 40
3.0
  1
１ｓｅｔ
 72
     4
 11
347.5
 21
49.0
 31
0.0
100
AcDbText
  0
TEXT
  5
591
330
504
100
AcDbEntity
  8
2-線
100
AcDbText
 10
377.0
 20
47.5
 30
0.0
 40
3.0
  1
浸炭焼き入れ
 11
377.0
 21
49.0
 31
0.0
100
AcDbText
 73
     2
  0
LINE
  5
592
330
504
100
AcDbEntity
  8
2-線
100
AcDbLine
 10
247.0
 20
58.0
 30
0.0
 11
410.0
 21
58.0
 31
0.0
  0
TEXT
  5
593
330
504
100
AcDbEntity
  8
2-線
100
AcDbText
 10
259.0
 20
53.5
 30
0.0
 40
3.0
  1
ＬＩＶ１０－００－０００
 41
0.9
 11
259.0
 21
55.0
 31
0.0
100
AcDbText
 73
     2
  0
TEXT
  5
594
330
504
100
AcDbEntity
  8
2-線
100
AcDbText
 10
250.6
 20
53.5
 30
0.0
 40
3.0
  1
３
 72
     4
 11
252.0
 21
55.0
 31
0.0
100
AcDbText
  0
TEXT
  5
595
330
504
100
AcDbEntity
  8
2-線
100
AcDbText
 10
309.0
 20
53.5
 30
0.0
 40
3.0
  1
スリーブ
 11
309.0
 21
55.0
 31
0.0
100
AcDbText
 73
     2
  0
TEXT
  5
596
330
504
100
AcDbEntity
  8
2-線
100
AcDbText
 10
357.0
 20
53.5
 30
0.0
 40
3.0
  1
Ｓ４５Ｃ
 41
0.8
 11
357.0
 21
55.0
 31
0.0
100
AcDbText
 73
     2
  0
TEXT
  5
597
330
504
100
AcDbEntity
  8
2-線
100
AcDbText
 10
346.2
 20
53.5
 30
0.0
 40
3.0
  1
１
 72
     4
 11
347.5
 21
55.0
 31
0.0
100
AcDbText
  0
LINE
  5
598
330
504
100
AcDbEntity
  8
2-線
100
AcDbLine
 10
247.0
 20
64.0
 30
0.0
 11
410.0
 21
64.0
 31
0.0
  0
TEXT
  5
599
330
504
100
AcDbEntity
  8
2-線
100
AcDbText
 10
259.0
 20
59.5
 30
0.0
 40
3.0
  1
ＬＩＳ１０－ＳＳ－００１
 41
0.9
 11
259.0
 21
61.0
 31
0.0
100
AcDbText
 73
     2
  0
TEXT
  5
59A
330
504
100
AcDbEntity
  8
2-線
100
AcDbText
 10
250.6
 20
59.5
 30
0.0
 40
3.0
  1
４
 72
     4
 11
252.0
 21
61.0
 31
0.0
100
AcDbText
  0
TEXT
  5
59B
330
504
100
AcDbEntity
  8
2-線
100
AcDbText
 10
309.0
 20
59.5
 30
0.0
 40
3.0
  1
スプライン軸
 41
0.9
 11
309.0
 21
61.0
 31
0.0
100
AcDbText
 73
     2
  0
TEXT
  5
59C
330
504
100
AcDbEntity
  8
2-線
100
AcDbText
 10
357.0
 20
59.5
 30
0.0
 40
3.0
  1
ＳＫ４
 41
0.8
 11
357.0
 21
61.0
 31
0.0
100
AcDbText
 73
     2
  0
TEXT
  5
59D
330
504
100
AcDbEntity
  8
2-線
100
AcDbText
 10
346.2
 20
59.5
 30
0.0
 40
3.0
  1
１
 72
     4
 11
347.5
 21
61.0
 31
0.0
100
AcDbText
  0
LINE
  5
59E
330
504
100
AcDbEntity
  8
2-線
100
AcDbLine
 10
247.0
 20
70.0
 30
0.0
 11
410.0
 21
70.0
 31
0.0
  0
TEXT
  5
59F
330
504
100
AcDbEntity
  8
2-線
100
AcDbText
 10
259.0
 20
65.5
 30
0.0
 40
3.0
  1
ＬＬＰ０８－００－０００
 41
0.9
 11
259.0
 21
67.0
 31
0.0
100
AcDbText
 73
     2
  0
TEXT
  5
5A0
330
504
100
AcDbEntity
  8
2-線
100
AcDbText
 10
250.5
 20
65.5
 30
0.0
 40
3.0
  1
５
 72
     4
 11
252.0
 21
67.0
 31
0.0
100
AcDbText
  0
TEXT
  5
5A1
330
504
100
AcDbEntity
  8
2-線
100
AcDbText
 10
309.0
 20
65.5
 30
0.0
 40
3.0
  1
連結軸
 41
0.9
 11
309.0
 21
67.0
 31
0.0
100
AcDbText
 73
     2
  0
TEXT
  5
5A2
330
504
100
AcDbEntity
  8
2-線
100
AcDbText
 10
357.0
 20
65.5
 30
0.0
 40
3.0
  1
ＳＫ４
 41
0.8
 11
357.0
 21
67.0
 31
0.0
100
AcDbText
 73
     2
  0
TEXT
  5
5A3
330
504
100
AcDbEntity
  8
2-線
100
AcDbText
 10
346.2
 20
65.5
 30
0.0
 40
3.0
  1
１
 72
     4
 11
347.5
 21
67.0
 31
0.0
100
AcDbText
  0
LINE
  5
5A4
330
504
100
AcDbEntity
  8
2-線
100
AcDbLine
 10
247.0
 20
76.0
 30
0.0
 11
410.0
 21
76.0
 31
0.0
  0
TEXT
  5
5A5
330
504
100
AcDbEntity
  8
2-線
100
AcDbText
 10
259.0
 20
71.5
 30
0.0
 40
3.0
  1
ＥＳＰ０５－１８
 41
0.9
 11
259.0
 21
73.0
 31
0.0
100
AcDbText
 73
     2
  0
TEXT
  5
5A6
330
504
100
AcDbEntity
  8
2-線
100
AcDbText
 10
250.6
 20
71.5
 30
0.0
 40
3.0
  1
６
 72
     4
 11
252.0
 21
73.0
 31
0.0
100
AcDbText
  0
TEXT
  5
5A7
330
504
100
AcDbEntity
  8
2-線
100
AcDbText
 10
309.0
 20
71.5
 30
0.0
 40
3.0
  1
平行ピン
 41
0.9
 11
309.0
 21
73.0
 31
0.0
100
AcDbText
 73
     2
  0
TEXT
  5
5A8
330
504
100
AcDbEntity
  8
2-線
100
AcDbText
 10
357.0
 20
71.5
 30
0.0
 40
3.0
  1
市販品
 41
0.8
 11
357.0
 21
73.0
 31
0.0
100
AcDbText
 73
     2
  0
TEXT
  5
5A9
330
504
100
AcDbEntity
  8
2-線
100
AcDbText
 10
346.2
 20
71.5
 30
0.0
 40
3.0
  1
１
 72
     4
 11
347.5
 21
73.0
 31
0.0
100
AcDbText
  0
ENDBLK
  5
5AB
330
504
100
AcDbEntity
  8
0
100
AcDbBlockEnd
  0
BLOCK
  5
191F
330
1915
100
AcDbEntity
  8
0
100
AcDbBlockBegin
  2
*D4
 70
     1
 10
0.0
 20
0.0
 30
0.0
  3
*D4
  1

  0
LINE
  5
232D
330
1915
100
AcDbEntity
  8
1-線
 62
     0
370
    -2
100
AcDbLine
 10
187.0000019073486
 20
207.9999961853027
 30
0.0
 11
159.0
 21
207.9999961853027
 31
0.0
  0
LINE
  5
232E
330
1915
100
AcDbEntity
  8
1-線
 62
     0
370
    -2
100
AcDbLine
 10
187.0000019311983
 20
183.9999847412109
 30
0.0
 11
159.0
 21
183.9999847412109
 31
0.0
  0
LINE
  5
232F
330
1915
100
AcDbEntity
  8
1-線
 62
     0
370
    -2
100
AcDbLine
 10
160.0
 20
205.4999961853027
 30
0.0
 11
160.0
 21
186.4999847412109
 31
0.0
  0
INSERT
  5
2330
330
1915
100
AcDbEntity
  8
1-線
 62
     0
370
    -2
100
AcDbBlockReference
  2
_Open30
 10
160.0
 20
207.9999961853027
 30
0.0
 41
2.5
 42
2.5
 43
2.5
 50
90.0
  0
INSERT
  5
2331
330
1915
100
AcDbEntity
  8
1-線
 62
     0
370
    -2
100
AcDbBlockReference
  2
_Open30
 10
160.0
 20
183.9999847412109
 30
0.0
 41
2.5
 42
2.5
 43
2.5
 50
270.0
  0
MTEXT
  5
2332
330
1915
100
AcDbEntity
  8
1-線
 62
     0
100
AcDbMText
 10
157.5
 20
196.0
 30
0.0
 40
3.0
 41
0.0
 71
     5
 72
     1
  1
%%c12
 11
0.0000000000000001
 21
1.0
 31
0.0
 73
     1
 44
1.0
  0
POINT
  5
2333
330
1915
100
AcDbEntity
  8
Defpoints
 62
     0
100
AcDbPoint
 10
187.0000019073486
 20
207.9999961853027
 30
0.0
  0
POINT
  5
2334
330
1915
100
AcDbEntity
  8
Defpoints
 62
     0
100
AcDbPoint
 10
187.0000019311983
 20
183.9999847412109
 30
0.0
  0
POINT
  5
2335
330
1915
100
AcDbEntity
  8
Defpoints
 62
     0
100
AcDbPoint
 10
160.0
 20
183.9999847412109
 30
0.0
  0
ENDBLK
  5
1920
330
1915
100
AcDbEntity
  8
0
100
AcDbBlockEnd
  0
BLOCK
  5
197E
330
1974
100
AcDbEntity
  8
0
100
AcDbBlockBegin
  2
*D5
 70
     1
 10
0.0
 20
0.0
 30
0.0
  3
*D5
  1

  0
LINE
  5
23C0
330
1974
100
AcDbEntity
  8
1-線
 62
     0
370
    -2
100
AcDbLine
 10
244.9999980926514
 20
208.0000038146973
 30
0.0
 11
273.0
 21
208.0000038146973
 31
0.0
  0
LINE
  5
23C1
330
1974
100
AcDbEntity
  8
1-線
 62
     0
370
    -2
100
AcDbLine
 10
244.9999980926514
 20
183.9999961853027
 30
0.0
 11
273.0
 21
183.9999961853027
 31
0.0
  0
LINE
  5
23C2
330
1974
100
AcDbEntity
  8
1-線
 62
     0
370
    -2
100
AcDbLine
 10
272.0000000000001
 20
205.5000038146973
 30
0.0
 11
272.0000000000001
 21
186.4999961853027
 31
0.0
  0
INSERT
  5
23C3
330
1974
100
AcDbEntity
  8
1-線
 62
     0
370
    -2
100
AcDbBlockReference
  2
_Open30
 10
272.0000000000001
 20
208.0000038146973
 30
0.0
 41
2.5
 42
2.5
 43
2.5
 50
90.0
  0
INSERT
  5
23C4
330
1974
100
AcDbEntity
  8
1-線
 62
     0
370
    -2
100
AcDbBlockReference
  2
_Open30
 10
272.0000000000001
 20
183.9999961853027
 30
0.0
 41
2.5
 42
2.5
 43
2.5
 50
270.0
  0
MTEXT
  5
23C5
330
1974
100
AcDbEntity
  8
1-線
 62
     0
100
AcDbMText
 10
269.5
 20
196.0
 30
0.0
 40
3.0
 41
0.0
 71
     5
 72
     1
  1
%%c12
 11
0.0000000000000001
 21
1.0
 31
0.0
 73
     1
 44
1.0
  0
POINT
  5
23C6
330
1974
100
AcDbEntity
  8
Defpoints
 62
     0
100
AcDbPoint
 10
244.9999980926514
 20
208.0000038146973
 30
0.0
  0
POINT
  5
23C7
330
1974
100
AcDbEntity
  8
Defpoints
 62
     0
100
AcDbPoint
 10
244.9999980926514
 20
183.9999961853027
 30
0.0
  0
POINT
  5
23C8
330
1974
100
AcDbEntity
  8
Defpoints
 62
     0
100
AcDbPoint
 10
272.0000000000001
 20
183.9999961853027
 30
0.0
  0
ENDBLK
  5
197F
330
1974
100
AcDbEntity
  8
0
100
AcDbBlockEnd
  0
BLOCK
  5
199A
330
1990
100
AcDbEntity
  8
0
100
AcDbBlockBegin
  2
*D6
 70
     1
 10
0.0
 20
0.0
 30
0.0
  3
*D6
  1

  0
LINE
  5
2642
330
1990
100
AcDbEntity
  8
1-線
 62
     0
370
    -2
100
AcDbLine
 10
194.0000030892494
 20
162.9923924585258
 30
0.0
 11
194.0000030892494
 21
155.0
 31
0.0
  0
LINE
  5
2643
330
1990
100
AcDbEntity
  8
1-線
 62
     0
370
    -2
100
AcDbLine
 10
185.0000019073486
 20
162.9733961288806
 30
0.0
 11
185.0000019073486
 21
155.0
 31
0.0
  0
LINE
  5
2644
330
1990
100
AcDbEntity
  8
1-線
 62
     0
370
    -2
100
AcDbLine
 10
191.5000030892494
 20
156.0
 30
0.0
 11
187.5000019073486
 21
156.0
 31
0.0
  0
INSERT
  5
2645
330
1990
100
AcDbEntity
  8
1-線
 62
     0
370
    -2
100
AcDbBlockReference
  2
_Open30
 10
194.0000030892494
 20
156.0
 30
0.0
 41
2.5
 42
2.5
 43
2.5
  0
INSERT
  5
2646
330
1990
100
AcDbEntity
  8
1-線
 62
     0
370
    -2
100
AcDbBlockReference
  2
_Open30
 10
185.0000019073486
 20
156.0
 30
0.0
 41
2.5
 42
2.5
 43
2.5
 50
180.0
  0
MTEXT
  5
2647
330
1990
100
AcDbEntity
  8
1-線
 62
     0
100
AcDbMText
 10
189.500002498299
 20
158.5
 30
0.0
 40
3.0
 41
0.0
 71
     5
 72
     1
  1
4.5
 73
     1
 44
1.0
  0
POINT
  5
2648
330
1990
100
AcDbEntity
  8
Defpoints
 62
     0
100
AcDbPoint
 10
194.0000030892494
 20
162.9923924585258
 30
0.0
  0
POINT
  5
2649
330
1990
100
AcDbEntity
  8
Defpoints
 62
     0
100
AcDbPoint
 10
185.0000019073486
 20
162.9733961288806
 30
0.0
  0
POINT
  5
264A
330
1990
100
AcDbEntity
  8
Defpoints
 62
     0
100
AcDbPoint
 10
185.0000019073486
 20
156.0
 30
0.0
  0
ENDBLK
  5
199B
330
1990
100
AcDbEntity
  8
0
100
AcDbBlockEnd
  0
BLOCK
  5
19A7
330
199D
100
AcDbEntity
  8
0
100
AcDbBlockBegin
  2
*D7
 70
     1
 10
0.0
 20
0.0
 30
0.0
  3
*D7
  1

  0
LINE
  5
2498
330
199D
100
AcDbEntity
  8
1-線
 62
     0
370
    -2
100
AcDbLine
 10
185.0000019073486
 20
155.0
 30
0.0
 11
185.0000019073486
 21
147.0
 31
0.0
  0
LINE
  5
2499
330
199D
100
AcDbEntity
  8
1-線
 62
     0
370
    -2
100
AcDbLine
 10
203.0
 20
183.9999847412109
 30
0.0
 11
203.0
 21
147.0
 31
0.0
  0
LINE
  5
249A
330
199D
100
AcDbEntity
  8
1-線
 62
     0
370
    -2
100
AcDbLine
 10
187.5000019073486
 20
148.0
 30
0.0
 11
200.5
 21
148.0
 31
0.0
  0
INSERT
  5
249B
330
199D
100
AcDbEntity
  8
1-線
 62
     0
370
    -2
100
AcDbBlockReference
  2
_Open30
 10
185.0000019073486
 20
148.0
 30
0.0
 41
2.5
 42
2.5
 43
2.5
 50
180.0
  0
INSERT
  5
249C
330
199D
100
AcDbEntity
  8
1-線
 62
     0
370
    -2
100
AcDbBlockReference
  2
_Open30
 10
203.0
 20
148.0
 30
0.0
 41
2.5
 42
2.5
 43
2.5
  0
MTEXT
  5
249D
330
199D
100
AcDbEntity
  8
1-線
 62
     0
100
AcDbMText
 10
194.0000009536743
 20
150.5
 30
0.0
 40
3.0
 41
0.0
 71
     5
 72
     1
  1
9
 73
     1
 44
1.0
  0
POINT
  5
249E
330
199D
100
AcDbEntity
  8
Defpoints
 62
     0
100
AcDbPoint
 10
185.0000019073486
 20
155.0
 30
0.0
  0
POINT
  5
249F
330
199D
100
AcDbEntity
  8
Defpoints
 62
     0
100
AcDbPoint
 10
203.0
 20
183.9999847412109
 30
0.0
  0
POINT
  5
24A0
330
199D
100
AcDbEntity
  8
Defpoints
 62
     0
100
AcDbPoint
 10
203.0
 20
148.0
 30
0.0
  0
ENDBLK
  5
19A8
330
199D
100
AcDbEntity
  8
0
100
AcDbBlockEnd
  0
BLOCK
  5
19B4
330
19AA
100
AcDbEntity
  8
0
100
AcDbBlockBegin
  2
*D8
 70
     1
 10
0.0
 20
0.0
 30
0.0
  3
*D8
  1

  0
LINE
  5
2486
330
19AA
100
AcDbEntity
  8
1-線
 62
     0
370
    -2
100
AcDbLine
 10
238.000024578475
 20
175.465735821022
 30
0.0
 11
238.000024578475
 21
155.0
 31
0.0
  0
LINE
  5
2487
330
19AA
100
AcDbEntity
  8
1-線
 62
     0
370
    -2
100
AcDbLine
 10
246.9999980926514
 20
185.9999961853027
 30
0.0
 11
246.9999980926514
 21
155.0
 31
0.0
  0
LINE
  5
2488
330
19AA
100
AcDbEntity
  8
1-線
 62
     0
370
    -2
100
AcDbLine
 10
240.5000245784751
 20
156.0
 30
0.0
 11
244.4999980926514
 21
156.0
 31
0.0
  0
INSERT
  5
2489
330
19AA
100
AcDbEntity
  8
1-線
 62
     0
370
    -2
100
AcDbBlockReference
  2
_Open30
 10
238.000024578475
 20
156.0
 30
0.0
 41
2.5
 42
2.5
 43
2.5
 50
180.0
  0
INSERT
  5
248A
330
19AA
100
AcDbEntity
  8
1-線
 62
     0
370
    -2
100
AcDbBlockReference
  2
_Open30
 10
246.9999980926514
 20
156.0
 30
0.0
 41
2.5
 42
2.5
 43
2.5
  0
MTEXT
  5
248B
330
19AA
100
AcDbEntity
  8
1-線
 62
     0
100
AcDbMText
 10
242.5000113355632
 20
158.5
 30
0.0
 40
3.0
 41
0.0
 71
     5
 72
     1
  1
4.5
 73
     1
 44
1.0
  0
POINT
  5
248C
330
19AA
100
AcDbEntity
  8
Defpoints
 62
     0
100
AcDbPoint
 10
238.000024578475
 20
175.465735821022
 30
0.0
  0
POINT
  5
248D
330
19AA
100
AcDbEntity
  8
Defpoints
 62
     0
100
AcDbPoint
 10
246.9999980926514
 20
185.9999961853027
 30
0.0
  0
POINT
  5
248E
330
19AA
100
AcDbEntity
  8
Defpoints
 62
     0
100
AcDbPoint
 10
246.9999980926514
 20
156.0
 30
0.0
  0
ENDBLK
  5
19B5
330
19AA
100
AcDbEntity
  8
0
100
AcDbBlockEnd
  0
BLOCK
  5
19E8
330
19DE
100
AcDbEntity
  8
0
100
AcDbBlockBegin
  2
*D9
 70
     1
 10
0.0
 20
0.0
 30
0.0
  3
*D9
  1

  0
LINE
  5
24AA
330
19DE
100
AcDbEntity
  8
1-線
 62
     0
370
    -2
100
AcDbLine
 10
246.9999980926514
 20
155.0
 30
0.0
 11
246.9999980926514
 21
147.0
 31
0.0
  0
LINE
  5
24AB
330
19DE
100
AcDbEntity
  8
1-線
 62
     0
370
    -2
100
AcDbLine
 10
229.0
 20
189.9999847412109
 30
0.0
 11
229.0
 21
147.0
 31
0.0
  0
LINE
  5
24AC
330
19DE
100
AcDbEntity
  8
1-線
 62
     0
370
    -2
100
AcDbLine
 10
244.4999980926514
 20
148.0
 30
0.0
 11
231.5
 21
148.0
 31
0.0
  0
INSERT
  5
24AD
330
19DE
100
AcDbEntity
  8
1-線
 62
     0
370
    -2
100
AcDbBlockReference
  2
_Open30
 10
246.9999980926514
 20
148.0
 30
0.0
 41
2.5
 42
2.5
 43
2.5
  0
INSERT
  5
24AE
330
19DE
100
AcDbEntity
  8
1-線
 62
     0
370
    -2
100
AcDbBlockReference
  2
_Open30
 10
229.0
 20
148.0
 30
0.0
 41
2.5
 42
2.5
 43
2.5
 50
180.0
  0
MTEXT
  5
24AF
330
19DE
100
AcDbEntity
  8
1-線
 62
     0
100
AcDbMText
 10
237.9999990463257
 20
150.5
 30
0.0
 40
3.0
 41
0.0
 71
     5
 72
     1
  1
9
 73
     1
 44
1.0
  0
POINT
  5
24B0
330
19DE
100
AcDbEntity
  8
Defpoints
 62
     0
100
AcDbPoint
 10
246.9999980926514
 20
155.0
 30
0.0
  0
POINT
  5
24B1
330
19DE
100
AcDbEntity
  8
Defpoints
 62
     0
100
AcDbPoint
 10
229.0
 20
189.9999847412109
 30
0.0
  0
POINT
  5
24B2
330
19DE
100
AcDbEntity
  8
Defpoints
 62
     0
100
AcDbPoint
 10
229.0
 20
148.0
 30
0.0
  0
ENDBLK
  5
19E9
330
19DE
100
AcDbEntity
  8
0
100
AcDbBlockEnd
  0
BLOCK
  5
19F5
330
19EB
100
AcDbEntity
  8
0
100
AcDbBlockBegin
  2
*D10
 70
     1
 10
0.0
 20
0.0
 30
0.0
  3
*D10
  1

  0
LINE
  5
24B3
330
19EB
100
AcDbEntity
  8
1-線
 62
     0
370
    -2
100
AcDbLine
 10
215.9999963325344
 20
182.2999876773402
 30
0.0
 11
215.9999963325344
 21
139.0
 31
0.0
  0
LINE
  5
24B4
330
19EB
100
AcDbEntity
  8
1-線
 62
     0
370
    -2
100
AcDbLine
 10
185.0000019073486
 20
147.0
 30
0.0
 11
185.0000019073486
 21
139.0
 31
0.0
  0
LINE
  5
24B5
330
19EB
100
AcDbEntity
  8
1-線
 62
     0
370
    -2
100
AcDbLine
 10
213.4999963325344
 20
140.0
 30
0.0
 11
187.5000019073486
 21
140.0
 31
0.0
  0
INSERT
  5
24B6
330
19EB
100
AcDbEntity
  8
1-線
 62
     0
370
    -2
100
AcDbBlockReference
  2
_Open30
 10
215.9999963325344
 20
140.0
 30
0.0
 41
2.5
 42
2.5
 43
2.5
  0
INSERT
  5
24B7
330
19EB
100
AcDbEntity
  8
1-線
 62
     0
370
    -2
100
AcDbBlockReference
  2
_Open30
 10
185.0000019073486
 20
140.0
 30
0.0
 41
2.5
 42
2.5
 43
2.5
 50
180.0
  0
MTEXT
  5
24B8
330
19EB
100
AcDbEntity
  8
1-線
 62
     0
100
AcDbMText
 10
200.4999991199415
 20
142.5
 30
0.0
 40
3.0
 41
0.0
 71
     5
 72
     1
  1
15.5
 73
     1
 44
1.0
  0
POINT
  5
24B9
330
19EB
100
AcDbEntity
  8
Defpoints
 62
     0
100
AcDbPoint
 10
215.9999963325344
 20
182.2999876773402
 30
0.0
  0
POINT
  5
24BA
330
19EB
100
AcDbEntity
  8
Defpoints
 62
     0
100
AcDbPoint
 10
185.0000019073486
 20
147.0
 30
0.0
  0
POINT
  5
24BB
330
19EB
100
AcDbEntity
  8
Defpoints
 62
     0
100
AcDbPoint
 10
185.0000019073486
 20
140.0
 30
0.0
  0
ENDBLK
  5
19F6
330
19EB
100
AcDbEntity
  8
0
100
AcDbBlockEnd
  0
BLOCK
  5
1A02
330
19F8
100
AcDbEntity
  8
0
100
AcDbBlockBegin
  2
*D11
 70
     1
 10
0.0
 20
0.0
 30
0.0
  3
*D11
  1

  0
LINE
  5
24BC
330
19F8
100
AcDbEntity
  8
1-線
 62
     0
370
    -2
100
AcDbLine
 10
215.9999963325344
 20
182.2999876773402
 30
0.0
 11
215.9999963325344
 21
139.0
 31
0.0
  0
LINE
  5
24BD
330
19F8
100
AcDbEntity
  8
1-線
 62
     0
370
    -2
100
AcDbLine
 10
246.9999980926514
 20
147.0
 30
0.0
 11
246.9999980926514
 21
139.0
 31
0.0
  0
LINE
  5
24BE
330
19F8
100
AcDbEntity
  8
1-線
 62
     0
370
    -2
100
AcDbLine
 10
218.4999963325344
 20
140.0
 30
0.0
 11
244.4999980926514
 21
140.0
 31
0.0
  0
INSERT
  5
24BF
330
19F8
100
AcDbEntity
  8
1-線
 62
     0
370
    -2
100
AcDbBlockReference
  2
_Open30
 10
215.9999963325344
 20
140.0
 30
0.0
 41
2.5
 42
2.5
 43
2.5
 50
180.0
  0
INSERT
  5
24C0
330
19F8
100
AcDbEntity
  8
1-線
 62
     0
370
    -2
100
AcDbBlockReference
  2
_Open30
 10
246.9999980926514
 20
140.0
 30
0.0
 41
2.5
 42
2.5
 43
2.5
  0
MTEXT
  5
24C1
330
19F8
100
AcDbEntity
  8
1-線
 62
     0
100
AcDbMText
 10
231.4999972125928
 20
142.5
 30
0.0
 40
3.0
 41
0.0
 71
     5
 72
     1
  1
15.5
 73
     1
 44
1.0
  0
POINT
  5
24C2
330
19F8
100
AcDbEntity
  8
Defpoints
 62
     0
100
AcDbPoint
 10
215.9999963325344
 20
182.2999876773402
 30
0.0
  0
POINT
  5
24C3
330
19F8
100
AcDbEntity
  8
Defpoints
 62
     0
100
AcDbPoint
 10
246.9999980926514
 20
147.0
 30
0.0
  0
POINT
  5
24C4
330
19F8
100
AcDbEntity
  8
Defpoints
 62
     0
100
AcDbPoint
 10
246.9999980926514
 20
140.0
 30
0.0
  0
ENDBLK
  5
1A03
330
19F8
100
AcDbEntity
  8
0
100
AcDbBlockEnd
  0
BLOCK
  5
1A0F
330
1A05
100
AcDbEntity
  8
0
100
AcDbBlockBegin
  2
*D12
 70
     1
 10
0.0
 20
0.0
 30
0.0
  3
*D12
  1

  0
LINE
  5
24CE
330
1A05
100
AcDbEntity
  8
1-線
 62
     0
370
    -2
100
AcDbLine
 10
185.0000019073486
 20
139.0
 30
0.0
 11
185.0000019073486
 21
131.0
 31
0.0
  0
LINE
  5
24CF
330
1A05
100
AcDbEntity
  8
1-線
 62
     0
370
    -2
100
AcDbLine
 10
246.9999980926514
 20
139.0
 30
0.0
 11
246.9999980926514
 21
131.0
 31
0.0
  0
LINE
  5
24D0
330
1A05
100
AcDbEntity
  8
1-線
 62
     0
370
    -2
100
AcDbLine
 10
187.5000019073486
 20
132.0
 30
0.0
 11
244.4999980926514
 21
132.0
 31
0.0
  0
INSERT
  5
24D1
330
1A05
100
AcDbEntity
  8
1-線
 62
     0
370
    -2
100
AcDbBlockReference
  2
_Open30
 10
185.0000019073486
 20
132.0
 30
0.0
 41
2.5
 42
2.5
 43
2.5
 50
180.0
  0
INSERT
  5
24D2
330
1A05
100
AcDbEntity
  8
1-線
 62
     0
370
    -2
100
AcDbBlockReference
  2
_Open30
 10
246.9999980926514
 20
132.0
 30
0.0
 41
2.5
 42
2.5
 43
2.5
  0
MTEXT
  5
24D3
330
1A05
100
AcDbEntity
  8
1-線
 62
     0
100
AcDbMText
 10
216.0
 20
134.5
 30
0.0
 40
3.0
 41
0.0
 71
     5
 72
     1
  1
31
 73
     1
 44
1.0
  0
POINT
  5
24D4
330
1A05
100
AcDbEntity
  8
Defpoints
 62
     0
100
AcDbPoint
 10
185.0000019073486
 20
139.0
 30
0.0
  0
POINT
  5
24D5
330
1A05
100
AcDbEntity
  8
Defpoints
 62
     0
100
AcDbPoint
 10
246.9999980926514
 20
139.0
 30
0.0
  0
POINT
  5
24D6
330
1A05
100
AcDbEntity
  8
Defpoints
 62
     0
100
AcDbPoint
 10
246.9999980926514
 20
132.0
 30
0.0
  0
ENDBLK
  5
1A10
330
1A05
100
AcDbEntity
  8
0
100
AcDbBlockEnd
  0
BLOCK
  5
1D68
330
1D5E
100
AcDbEntity
  8
0
100
AcDbBlockBegin
  2
*D13
 70
     1
 10
0.0
 20
0.0
 30
0.0
  3
*D13
  1

  0
LINE
  5
235C
330
1D5E
100
AcDbEntity
  8
1-線
 62
     0
370
    -2
100
AcDbLine
 10
185.9999980926513
 20
202.0
 30
0.0
 11
167.0
 21
202.0
 31
0.0
  0
LINE
  5
235D
330
1D5E
100
AcDbEntity
  8
1-線
 62
     0
370
    -2
100
AcDbLine
 10
185.9999980926513
 20
190.0
 30
0.0
 11
167.0
 21
190.0
 31
0.0
  0
LINE
  5
235E
330
1D5E
100
AcDbEntity
  8
1-線
 62
     0
370
    -2
100
AcDbLine
 10
168.0
 20
199.5
 30
0.0
 11
168.0
 21
192.5
 31
0.0
  0
INSERT
  5
235F
330
1D5E
100
AcDbEntity
  8
1-線
 62
     0
370
    -2
100
AcDbBlockReference
  2
_Open30
 10
168.0
 20
202.0
 30
0.0
 41
2.5
 42
2.5
 43
2.5
 50
90.0
  0
INSERT
  5
2360
330
1D5E
100
AcDbEntity
  8
1-線
 62
     0
370
    -2
100
AcDbBlockReference
  2
_Open30
 10
168.0
 20
190.0
 30
0.0
 41
2.5
 42
2.5
 43
2.5
 50
270.0
  0
MTEXT
  5
2361
330
1D5E
100
AcDbEntity
  8
1-線
 62
     0
100
AcDbMText
 10
165.5
 20
196.0
 30
0.0
 40
3.0
 41
0.0
 71
     5
 72
     1
  1
\A1;%%c6{\H0.7x;\SH7^ ;}
 11
0.0000000000000001
 21
1.0
 31
0.0
 73
     1
 44
1.0
  0
POINT
  5
2362
330
1D5E
100
AcDbEntity
  8
Defpoints
 62
     0
100
AcDbPoint
 10
185.9999980926513
 20
202.0
 30
0.0
  0
POINT
  5
2363
330
1D5E
100
AcDbEntity
  8
Defpoints
 62
     0
100
AcDbPoint
 10
185.9999980926513
 20
190.0
 30
0.0
  0
POINT
  5
2364
330
1D5E
100
AcDbEntity
  8
Defpoints
 62
     0
100
AcDbPoint
 10
168.0
 20
190.0
 30
0.0
  0
ENDBLK
  5
1D69
330
1D5E
100
AcDbEntity
  8
0
100
AcDbBlockEnd
  0
BLOCK
  5
2397
330
238C
100
AcDbEntity
  8
0
100
AcDbBlockBegin
  2
*D14
 70
     1
 10
0.0
 20
0.0
 30
0.0
  3
*D14
  1

  0
LINE
  5
23DB
330
238C
100
AcDbEntity
  8
1-線
 62
     0
370
    -2
100
AcDbLine
 10
246.0000019073486
 20
189.9999961853027
 30
0.0
 11
265.0000000000001
 21
189.9999961853027
 31
0.0
  0
LINE
  5
23DC
330
238C
100
AcDbEntity
  8
1-線
 62
     0
370
    -2
100
AcDbLine
 10
246.0000019073486
 20
202.0
 30
0.0
 11
265.0000000000001
 21
202.0
 31
0.0
  0
LINE
  5
23DD
330
238C
100
AcDbEntity
  8
1-線
 62
     0
370
    -2
100
AcDbLine
 10
264.0000000000001
 20
192.4999961853027
 30
0.0
 11
264.0000000000001
 21
199.5
 31
0.0
  0
INSERT
  5
23DE
330
238C
100
AcDbEntity
  8
1-線
 62
     0
370
    -2
100
AcDbBlockReference
  2
_Open30
 10
264.0000000000001
 20
189.9999961853027
 30
0.0
 41
2.5
 42
2.5
 43
2.5
 50
270.0
  0
INSERT
  5
23DF
330
238C
100
AcDbEntity
  8
1-線
 62
     0
370
    -2
100
AcDbBlockReference
  2
_Open30
 10
264.0000000000001
 20
202.0
 30
0.0
 41
2.5
 42
2.5
 43
2.5
 50
90.0
  0
MTEXT
  5
23E0
330
238C
100
AcDbEntity
  8
1-線
 62
     0
100
AcDbMText
 10
261.5
 20
196.0
 30
0.0
 40
3.0
 41
0.0
 71
     5
 72
     1
  1
\A1;%%C6{\H0.7x;\SH7^ ;}
 11
0.0000000000000001
 21
1.0
 31
0.0
 73
     1
 44
1.0
  0
POINT
  5
23E1
330
238C
100
AcDbEntity
  8
Defpoints
 62
     0
100
AcDbPoint
 10
246.0000019073486
 20
189.9999961853027
 30
0.0
  0
POINT
  5
23E2
330
238C
100
AcDbEntity
  8
Defpoints
 62
     0
100
AcDbPoint
 10
246.0000019073486
 20
202.0
 30
0.0
  0
POINT
  5
23E3
330
238C
100
AcDbEntity
  8
Defpoints
 62
     0
100
AcDbPoint
 10
264.0000000000001
 20
202.0
 30
0.0
  0
ENDBLK
  5
2398
330
238C
100
AcDbEntity
  8
0
100
AcDbBlockEnd
  0
BLOCK
  5
2421
330
2415
100
AcDbEntity
  8
0
100
AcDbBlockBegin
  2
*D15
 70
     1
 10
0.0
 20
0.0
 30
0.0
  3
*D15
  1

  0
LINE
  5
2678
330
2415
100
AcDbEntity
  8
1-線
 62
     0
370
    -2
100
AcDbLine
 10
190.9999980926514
 20
183.9999847412109
 30
0.0
 11
190.9999980926514
 21
163.0
 31
0.0
  0
LINE
  5
2679
330
2415
100
AcDbEntity
  8
1-線
 62
     0
370
    -2
100
AcDbLine
 10
196.9999980926513
 20
183.9999847412109
 30
0.0
 11
196.9999980926513
 21
163.0
 31
0.0
  0
LINE
  5
267A
330
2415
100
AcDbEntity
  8
1-線
 62
     0
370
    -2
100
AcDbLine
 10
199.4999980926514
 20
164.0
 30
0.0
 11
201.9999980926514
 21
164.0
 31
0.0
  0
LINE
  5
267B
330
2415
100
AcDbEntity
  8
1-線
 62
     0
370
    -2
100
AcDbLine
 10
188.4999980926513
 20
164.0
 30
0.0
 11
173.3599980926514
 21
164.0
 31
0.0
  0
LINE
  5
267C
330
2415
100
AcDbEntity
  8
1-線
 62
     0
370
    -2
100
AcDbLine
 10
196.9999980926513
 20
164.0
 30
0.0
 11
190.9999980926514
 21
164.0
 31
0.0
  0
INSERT
  5
267D
330
2415
100
AcDbEntity
  8
1-線
 62
     0
370
    -2
100
AcDbBlockReference
  2
_Open30
 10
196.9999980926513
 20
164.0
 30
0.0
 41
2.5
 42
2.5
 43
2.5
 50
180.0
  0
INSERT
  5
267E
330
2415
100
AcDbEntity
  8
1-線
 62
     0
370
    -2
100
AcDbBlockReference
  2
_Open30
 10
190.9999980926514
 20
164.0
 30
0.0
 41
2.5
 42
2.5
 43
2.5
  0
MTEXT
  5
267F
330
2415
100
AcDbEntity
  8
1-線
 62
     0
100
AcDbMText
 10
179.1099980926514
 20
167.45
 30
0.0
 40
3.0
 41
0.0
 71
     5
 72
     1
  1
\A1;%%C3{\H0.7x;\SH8^ m6;}
 73
     1
 44
1.0
  0
POINT
  5
2680
330
2415
100
AcDbEntity
  8
Defpoints
 62
     0
100
AcDbPoint
 10
190.9999980926514
 20
183.9999847412109
 30
0.0
  0
POINT
  5
2681
330
2415
100
AcDbEntity
  8
Defpoints
 62
     0
100
AcDbPoint
 10
196.9999980926513
 20
183.9999847412109
 30
0.0
  0
POINT
  5
2682
330
2415
100
AcDbEntity
  8
Defpoints
 62
     0
100
AcDbPoint
 10
196.9999980926513
 20
164.0
 30
0.0
  0
ENDBLK
  5
2422
330
2415
100
AcDbEntity
  8
0
100
AcDbBlockEnd
  0
ENDSEC
  0
SECTION
  2
ENTITIES
  0
MTEXT
  5
E68
330
1F
100
AcDbEntity
  8
1-線
100
AcDbMText
 10
312.9841260005437
 20
164.7217985525683
 30
0.0
 40
3.0
 41
15.0
 71
     7
 72
     1
  1

 73
     1
 44
1.0
  0
LINE
  5
1EEF
330
1F
100
AcDbEntity
  8
3-線
100
AcDbLine
 10
226.4999993189742
 20
201.2535474165448
 30
0.0
 11
226.4999998547998
 21
197.4142122177384
 31
0.0
  0
LINE
  5
226D
330
1F
100
AcDbEntity
  8
3-線
100
AcDbLine
 10
227.400009624907
 20
201.6000003814697
 30
0.0
 11
227.400009624907
 21
190.4000053405761
 31
0.0
  0
LINE
  5
226E
330
1F
100
AcDbEntity
  8
3-線
100
AcDbLine
 10
226.6000094341722
 20
190.4000053405761
 30
0.0
 11
226.6000094341722
 21
201.6000003814697
 31
0.0
  0
ARC
  5
226F
330
1F
100
AcDbEntity
  8
3-線
100
AcDbCircle
 10
227.0000090527025
 20
196.0000019073486
 30
0.0
 40
1.5
100
AcDbArc
 50
105.4660096534887
 51
254.5339935342348
  0
ARC
  5
2270
330
1F
100
AcDbEntity
  8
3-線
100
AcDbCircle
 10
227.0000090527025
 20
196.0000019073486
 30
0.0
 40
1.5
100
AcDbArc
 50
285.4660351530126
 51
74.53396120452187
  0
LINE
  5
2271
330
1F
100
AcDbEntity
  8
1-破線
100
AcDbLine
 10
231.0000014233079
 20
199.0
 30
0.0
 11
231.0000014233079
 21
192.9999980926513
 31
0.0
  0
LINE
  5
2272
330
1F
100
AcDbEntity
  8
3-線
100
AcDbLine
 10
218.3557734417405
 20
197.8575077056884
 30
0.0
 11
218.3557734417405
 21
194.1424922943115
 31
0.0
  0
LINE
  5
2273
330
1F
100
AcDbEntity
  8
3-線
100
AcDbLine
 10
222.5000004696336
 20
192.9999923706055
 30
0.0
 11
222.5000004696336
 21
198.9999923706055
 31
0.0
  0
LINE
  5
2274
330
1F
100
AcDbEntity
  8
3-線
100
AcDbLine
 10
231.4999995159593
 20
201.0000019073487
 30
0.0
 11
231.4999995159593
 21
190.9999980926514
 31
0.0
  0
LINE
  5
2275
330
1F
100
AcDbEntity
  8
3-線
100
AcDbLine
 10
219.5000004696336
 20
192.9999961853027
 30
0.0
 11
219.5000004696336
 21
199.0
 31
0.0
  0
LINE
  5
2276
330
1F
100
AcDbEntity
  8
3-線
100
AcDbLine
 10
200.9999995159593
 20
199.0
 30
0.0
 11
200.9999995159593
 21
193.0
 31
0.0
  0
LINE
  5
2277
330
1F
100
AcDbEntity
  8
3-線
100
AcDbLine
 10
206.4999995159593
 20
193.7999801635742
 30
0.0
 11
206.4999995159593
 21
201.9999980926514
 31
0.0
  0
LINE
  5
2278
330
1F
100
AcDbEntity
  8
3-線
100
AcDbLine
 10
203.4999995159593
 20
201.9999980926514
 30
0.0
 11
203.4999995159593
 21
193.7999801635742
 31
0.0
  0
LINE
  5
2279
330
1F
100
AcDbEntity
  8
3-線
100
AcDbLine
 10
200.5000014233079
 20
190.9999923706054
 30
0.0
 11
200.5000014233079
 21
200.9999980926514
 31
0.0
  0
LINE
  5
227A
330
1F
100
AcDbEntity
  8
3-線
100
AcDbLine
 10
209.5000004696336
 20
201.9999980926514
 30
0.0
 11
209.5000004696336
 21
189.9999923706054
 31
0.0
  0
ARC
  5
227B
330
1F
100
AcDbEntity
  8
3-線
100
AcDbCircle
 10
216.0000004696336
 20
196.0
 30
0.0
 40
3.0
100
AcDbArc
 50
270.0000006832446
 51
90.00000250447845
  0
CIRCLE
  5
227C
330
1F
100
AcDbEntity
  8
3-線
100
AcDbCircle
 10
216.0000004696336
 20
196.0
 30
0.0
 40
1.75
  0
ARC
  5
227D
330
1F
100
AcDbEntity
  8
3-線
100
AcDbCircle
 10
221.5000014233079
 20
193.4999980926513
 30
0.0
 40
0.999998927116394
100
AcDbArc
 50
270.0000006832446
 51
359.9999280556422
  0
ARC
  5
227E
330
1F
100
AcDbEntity
  8
3-線
100
AcDbCircle
 10
220.5000004696336
 20
192.9999923706055
 30
0.0
 40
2.0
100
AcDbArc
 50
270.0000006832446
 51
0.0
  0
LINE
  5
227F
330
1F
100
AcDbEntity
  8
1-破線
100
AcDbLine
 10
231.0000014233079
 20
192.9999980926513
 30
0.0
 11
222.3660192417589
 21
192.9999885559082
 31
0.0
  0
LINE
  5
2280
330
1F
100
AcDbEntity
  8
3-線
100
AcDbLine
 10
226.5000100063768
 20
189.9999961853027
 30
0.0
 11
213.4663104938951
 21
189.9999866485595
 31
0.0
  0
LINE
  5
2281
330
1F
100
AcDbEntity
  8
3-線
100
AcDbLine
 10
213.4663104938951
 20
189.9999923706054
 30
0.0
 11
213.0000004696336
 21
191.0
 31
0.0
  0
LINE
  5
2282
330
1F
100
AcDbEntity
  8
3-線
100
AcDbLine
 10
204.5000004696336
 20
190.799991607666
 30
0.0
 11
204.5000004696336
 21
189.9999923706054
 31
0.0
  0
LINE
  5
2283
330
1F
100
AcDbEntity
  8
3-線
100
AcDbLine
 10
205.4999995159593
 20
189.9999923706054
 30
0.0
 11
205.4999995159593
 21
190.799991607666
 31
0.0
  0
CIRCLE
  5
2284
330
1F
100
AcDbEntity
  8
3-線
100
AcDbCircle
 10
204.9999995159593
 20
190.4000015258789
 30
0.0
 40
0.4000000059604646
  0
ARC
  5
2285
330
1F
100
AcDbEntity
  8
3-線
100
AcDbCircle
 10
201.5000014233079
 20
190.9999923706054
 30
0.0
 40
1.0
100
AcDbArc
 50
180.0000050089553
 51
270.0000006832446
  0
LINE
  5
2286
330
1F
100
AcDbEntity
  8
3-線
100
AcDbLine
 10
206.4999995159593
 20
189.9999923706054
 30
0.0
 11
206.4999995159593
 21
193.0
 31
0.0
  0
LINE
  5
2287
330
1F
100
AcDbEntity
  8
3-線
100
AcDbLine
 10
203.4999995159593
 20
193.0
 30
0.0
 11
203.4999995159593
 21
189.9999923706054
 31
0.0
  0
ARC
  5
2288
330
1F
100
AcDbEntity
  8
3-線
100
AcDbCircle
 10
216.1138975771752
 20
187.0016145706177
 30
0.0
 40
4.0
100
AcDbArc
 50
91.63167322549199
 51
131.4446956333334
  0
LINE
  5
2289
330
1F
100
AcDbEntity
  8
3-線
100
AcDbLine
 10
209.5000004696336
 20
189.9999923706054
 30
0.0
 11
205.4999995159593
 21
189.9999923706054
 31
0.0
  0
LINE
  5
228A
330
1F
100
AcDbEntity
  8
3-線
100
AcDbLine
 10
204.5000004696336
 20
189.9999923706054
 30
0.0
 11
201.5000014233079
 21
189.9999923706054
 31
0.0
  0
ARC
  5
228B
330
1F
100
AcDbEntity
  8
3-線
100
AcDbCircle
 10
211.5000004696336
 20
190.9999923706054
 30
0.0
 40
2.0
100
AcDbArc
 50
90.00000250447845
 51
180.0000323297119
  0
LINE
  5
228C
330
1F
100
AcDbEntity
  8
3-線
100
AcDbLine
 10
206.2499995159593
 20
193.0
 30
0.0
 11
209.5000004696336
 21
193.0
 31
0.0
  0
LINE
  5
228D
330
1F
100
AcDbEntity
  8
3-線
100
AcDbLine
 10
206.0499987530199
 20
192.7999801635742
 30
0.0
 11
206.0499987530199
 21
191.7999801635742
 31
0.0
  0
LINE
  5
228E
330
1F
100
AcDbEntity
  8
3-線
100
AcDbLine
 10
203.9500002788988
 20
192.7999801635742
 30
0.0
 11
203.9500002788988
 21
191.7999801635742
 31
0.0
  0
LINE
  5
228F
330
1F
100
AcDbEntity
  8
3-線
100
AcDbLine
 10
200.5000004696336
 20
192.4999980926513
 30
0.0
 11
200.9999995159593
 21
193.0
 31
0.0
  0
LINE
  5
2290
330
1F
100
AcDbEntity
  8
3-線
100
AcDbLine
 10
206.2499995159593
 20
191.7999801635742
 30
0.0
 11
203.7499995159593
 21
191.7999801635742
 31
0.0
  0
LINE
  5
2291
330
1F
100
AcDbEntity
  8
3-線
100
AcDbLine
 10
203.7499995159593
 20
190.7999801635742
 30
0.0
 11
206.2499995159593
 21
190.7999801635742
 31
0.0
  0
LINE
  5
2292
330
1F
100
AcDbEntity
  8
3-線
100
AcDbLine
 10
206.2499995159593
 20
190.7999801635742
 30
0.0
 11
206.2499995159593
 21
191.7999801635742
 31
0.0
  0
LINE
  5
2293
330
1F
100
AcDbEntity
  8
3-線
100
AcDbLine
 10
203.7499995159593
 20
191.7999801635742
 30
0.0
 11
203.7499995159593
 21
190.7999801635742
 31
0.0
  0
LINE
  5
2294
330
1F
100
AcDbEntity
  8
3-線
100
AcDbLine
 10
200.9999995159593
 20
193.0
 30
0.0
 11
203.7499995159593
 21
193.0
 31
0.0
  0
LINE
  5
2295
330
1F
100
AcDbEntity
  8
3-線
100
AcDbLine
 10
206.2499995159593
 20
192.7999801635742
 30
0.0
 11
206.2499995159593
 21
193.5499801635742
 31
0.0
  0
LINE
  5
2296
330
1F
100
AcDbEntity
  8
3-線
100
AcDbLine
 10
206.4999995159593
 20
193.7999801635742
 30
0.0
 11
206.2499995159593
 21
193.5499801635742
 31
0.0
  0
LINE
  5
2297
330
1F
100
AcDbEntity
  8
3-線
100
AcDbLine
 10
203.7499995159593
 20
193.5499801635742
 30
0.0
 11
203.7499995159593
 21
192.7999801635742
 31
0.0
  0
LINE
  5
2298
330
1F
100
AcDbEntity
  8
3-線
100
AcDbLine
 10
203.7499995159593
 20
192.7999801635742
 30
0.0
 11
206.2499995159593
 21
192.7999801635742
 31
0.0
  0
LINE
  5
2299
330
1F
100
AcDbEntity
  8
3-線
100
AcDbLine
 10
206.2499995159593
 20
193.5499801635742
 30
0.0
 11
203.7499995159593
 21
193.5499801635742
 31
0.0
  0
LINE
  5
229A
330
1F
100
AcDbEntity
  8
3-線
100
AcDbLine
 10
203.7499995159593
 20
193.5499801635742
 30
0.0
 11
203.4999995159593
 21
193.7999801635742
 31
0.0
  0
LINE
  5
229B
330
1F
100
AcDbEntity
  8
3-線
100
AcDbLine
 10
203.4999995159593
 20
193.7999801635742
 30
0.0
 11
206.4999995159593
 21
193.7999801635742
 31
0.0
  0
LINE
  5
229C
330
1F
100
AcDbEntity
  8
3-線
100
AcDbLine
 10
219.0000004696336
 20
192.5
 30
0.0
 11
219.5000004696336
 21
192.9999961853027
 31
0.0
  0
LINE
  5
229D
330
1F
100
AcDbEntity
  8
3-線
100
AcDbLine
 10
212.5000004696336
 20
192.9999904632568
 30
0.0
 11
213.0000004696336
 21
192.5
 31
0.0
  0
LINE
  5
229E
330
1F
100
AcDbEntity
  8
3-線
100
AcDbLine
 10
216.0000006905092
 20
190.9999923706054
 30
0.0
 11
220.5000004696336
 21
190.9999923706054
 31
0.0
  0
LINE
  5
229F
330
1F
100
AcDbEntity
  8
3-線
100
AcDbLine
 10
213.0000004696336
 20
192.5
 30
0.0
 11
221.5000004696336
 21
192.5
 31
0.0
  0
LINE
  5
22A0
330
1F
100
AcDbEntity
  8
3-線
100
AcDbLine
 10
213.0000004696336
 20
191.0
 30
0.0
 11
213.0000004696336
 21
192.5
 31
0.0
  0
LINE
  5
22A1
330
1F
100
AcDbEntity
  8
3-線
100
AcDbLine
 10
211.5000004696336
 20
192.9999923706055
 30
0.0
 11
216.0000004696336
 21
193.0
 31
0.0
  0
ARC
  5
22A2
330
1F
100
AcDbEntity
  8
3-線
100
AcDbCircle
 10
230.4999995159593
 20
190.9999980926514
 30
0.0
 40
1.0
100
AcDbArc
 50
270.0000006832446
 51
0.0
  0
ARC
  5
22A3
330
1F
100
AcDbEntity
  8
3-線
100
AcDbCircle
 10
227.0000090527025
 20
190.4000053405761
 30
0.0
 40
0.4000000059604646
100
AcDbArc
 50
180.0000050089553
 51
0.0
  0
LINE
  5
22A4
330
1F
100
AcDbEntity
  8
3-線
100
AcDbLine
 10
226.5000100063768
 20
194.5857887268066
 30
0.0
 11
226.5000100063768
 21
189.9999961853027
 31
0.0
  0
LINE
  5
22A5
330
1F
100
AcDbEntity
  8
3-線
100
AcDbLine
 10
227.5000090527025
 20
189.9999961853027
 30
0.0
 11
227.5000090527025
 21
194.5857887268066
 31
0.0
  0
LINE
  5
22A6
330
1F
100
AcDbEntity
  8
3-線
100
AcDbLine
 10
230.4999995159593
 20
189.9999980926514
 30
0.0
 11
227.5000090527025
 21
189.9999961853027
 31
0.0
  0
LINE
  5
22A7
330
1F
100
AcDbEntity
  8
1-破線
100
AcDbLine
 10
231.0000014233079
 20
192.9999980926513
 30
0.0
 11
231.5000004696336
 21
192.5
 31
0.0
  0
LINE
  5
22A8
330
1F
100
AcDbEntity
  8
3-線
100
AcDbLine
 10
227.400009624907
 20
190.7999954223632
 30
0.0
 11
227.5000090527025
 21
190.7999954223632
 31
0.0
  0
LINE
  5
22A9
330
1F
100
AcDbEntity
  8
3-線
100
AcDbLine
 10
226.5000100063768
 20
190.7999954223632
 30
0.0
 11
226.6000094341722
 21
190.7999954223632
 31
0.0
  0
ARC
  5
22AC
330
1F
100
AcDbEntity
  8
3-線
100
AcDbCircle
 10
221.4999999927965
 20
198.5
 30
0.0
 40
1.000000357627867
100
AcDbArc
 50
359.9999826971556
 51
90.00000250447845
  0
ARC
  5
22AD
330
1F
100
AcDbEntity
  8
3-線
100
AcDbCircle
 10
220.5000004696336
 20
198.9999923706055
 30
0.0
 40
2.0
100
AcDbArc
 50
0.0
 51
90.00000250447845
  0
LINE
  5
22AE
330
1F
100
AcDbEntity
  8
1-破線
100
AcDbLine
 10
222.3660254406419
 20
199.0000038146972
 30
0.0
 11
231.0000014233079
 21
199.0
 31
0.0
  0
LINE
  5
22AF
330
1F
100
AcDbEntity
  8
3-線
100
AcDbLine
 10
213.4663078712907
 20
201.9999904632568
 30
0.0
 11
226.5000100063768
 21
202.0
 31
0.0
  0
ARC
  5
22B0
330
1F
100
AcDbEntity
  8
3-線
100
AcDbCircle
 10
216.1139082538572
 20
204.9983673095703
 30
0.0
 40
4.0
100
AcDbArc
 50
228.5550411770107
 51
268.3681592075028
  0
LINE
  5
22B1
330
1F
100
AcDbEntity
  8
3-線
100
AcDbLine
 10
213.0000004696336
 20
199.5
 30
0.0
 11
213.0000004696336
 21
201.0
 31
0.0
  0
ARC
  5
22B2
330
1F
100
AcDbEntity
  8
3-線
100
AcDbCircle
 10
211.5000004696336
 20
200.9999904632568
 30
0.0
 40
2.0
100
AcDbArc
 50
180.0000050089553
 51
270.0000006832446
  0
LINE
  5
22B3
330
1F
100
AcDbEntity
  8
3-線
100
AcDbLine
 10
206.0000023769823
 20
201.2000026702881
 30
0.0
 11
206.4999995159593
 21
200.7000026702881
 31
0.0
  0
LINE
  5
22B6
330
1F
100
AcDbEntity
  8
3-線
100
AcDbLine
 10
203.4999995159593
 20
200.7000026702881
 30
0.0
 11
203.9999976086107
 21
201.2000026702881
 31
0.0
  0
LINE
  5
22B7
330
1F
100
AcDbEntity
  8
3-線
100
AcDbLine
 10
209.5000004696336
 20
199.0
 30
0.0
 11
206.4999995159593
 21
199.0
 31
0.0
  0
LINE
  5
22B8
330
1F
100
AcDbEntity
  8
3-線
100
AcDbLine
 10
203.4999995159593
 20
199.0
 30
0.0
 11
200.9999995159593
 21
199.0
 31
0.0
  0
LINE
  5
22B9
330
1F
100
AcDbEntity
  8
3-線
100
AcDbLine
 10
200.9999995159593
 20
199.0
 30
0.0
 11
200.5000004696336
 21
199.5
 31
0.0
  0
LINE
  5
22BA
330
1F
100
AcDbEntity
  8
3-線
100
AcDbLine
 10
206.4999995159593
 20
200.7000026702881
 30
0.0
 11
203.4999995159593
 21
200.7000026702881
 31
0.0
  0
LINE
  5
22BD
330
1F
100
AcDbEntity
  8
3-線
100
AcDbLine
 10
221.5000004696336
 20
199.5
 30
0.0
 11
213.0000004696336
 21
199.5
 31
0.0
  0
LINE
  5
22BE
330
1F
100
AcDbEntity
  8
3-線
100
AcDbLine
 10
213.0000004696336
 20
199.5
 30
0.0
 11
212.5000004696336
 21
198.9999904632568
 31
0.0
  0
LINE
  5
22BF
330
1F
100
AcDbEntity
  8
3-線
100
AcDbLine
 10
216.0000004696336
 20
199.0
 30
0.0
 11
211.5000004696336
 21
198.9999904632568
 31
0.0
  0
LINE
  5
22C0
330
1F
100
AcDbEntity
  8
3-線
100
AcDbLine
 10
219.5000004696336
 20
199.0
 30
0.0
 11
219.0000004696336
 21
199.5
 31
0.0
  0
LINE
  5
22C3
330
1F
100
AcDbEntity
  8
3-線
100
AcDbLine
 10
205.4999995159593
 20
201.9999980926514
 30
0.0
 11
209.5000004696336
 21
201.9999980926514
 31
0.0
  0
LINE
  5
22C4
330
1F
100
AcDbEntity
  8
3-線
100
AcDbLine
 10
201.5000014233079
 20
201.9999980926514
 30
0.0
 11
204.5000004696336
 21
201.9999980926514
 31
0.0
  0
ARC
  5
22C5
330
1F
100
AcDbEntity
  8
3-線
100
AcDbCircle
 10
201.5000014233079
 20
200.9999980926514
 30
0.0
 40
1.0
100
AcDbArc
 50
90.00000250447845
 51
180.0000050089553
  0
LINE
  5
22C6
330
1F
100
AcDbEntity
  8
3-線
100
AcDbLine
 10
205.4999995159593
 20
201.1999988555908
 30
0.0
 11
205.4999995159593
 21
201.9999980926514
 31
0.0
  0
LINE
  5
22C7
330
1F
100
AcDbEntity
  8
3-線
100
AcDbLine
 10
204.5000004696336
 20
201.9999980926514
 30
0.0
 11
204.5000004696336
 21
201.1999988555908
 31
0.0
  0
CIRCLE
  5
22C8
330
1F
100
AcDbEntity
  8
3-線
100
AcDbCircle
 10
204.9999995159593
 20
201.5999965667725
 30
0.0
 40
0.4000000059604646
  0
LINE
  5
22C9
330
1F
100
AcDbEntity
  8
3-線
100
AcDbLine
 10
203.9999976086107
 20
201.2000026702881
 30
0.0
 11
206.0000023769823
 21
201.2000026702881
 31
0.0
  0
LINE
  5
22CB
330
1F
100
AcDbEntity
  8
3-線
100
AcDbLine
 10
220.5000004696336
 20
200.9999923706055
 30
0.0
 11
216.0000004696336
 21
200.9999904632568
 31
0.0
  0
LINE
  5
22CC
330
1F
100
AcDbEntity
  8
3-線
100
AcDbLine
 10
213.0000004696336
 20
201.0
 30
0.0
 11
213.4663078712907
 21
202.0
 31
0.0
  0
LINE
  5
22CD
330
1F
100
AcDbEntity
  8
3-線
100
AcDbLine
 10
227.5000090527025
 20
197.4142150878906
 30
0.0
 11
227.5000090527025
 21
202.0000019073486
 31
0.0
  0
LINE
  5
22CE
330
1F
100
AcDbEntity
  8
3-線
100
AcDbLine
 10
226.5000100063768
 20
202.0000019073486
 30
0.0
 11
226.5000100063768
 21
197.4142150878906
 31
0.0
  0
LINE
  5
22CF
330
1F
100
AcDbEntity
  8
1-破線
100
AcDbLine
 10
231.5000004696336
 20
199.5
 30
0.0
 11
231.0000014233079
 21
199.0
 31
0.0
  0
LINE
  5
22D1
330
1F
100
AcDbEntity
  8
3-線
100
AcDbLine
 10
227.5000090527025
 20
202.0
 30
0.0
 11
230.4999995159593
 21
202.0000019073486
 31
0.0
  0
LINE
  5
22D3
330
1F
100
AcDbEntity
  8
3-線
100
AcDbLine
 10
227.400009624907
 20
201.2000026702881
 30
0.0
 11
227.5000090527025
 21
201.2000026702881
 31
0.0
  0
LINE
  5
22D4
330
1F
100
AcDbEntity
  8
3-線
100
AcDbLine
 10
226.5000100063768
 20
201.2000026702881
 30
0.0
 11
226.6000094341722
 21
201.2000026702881
 31
0.0
  0
ARC
  5
22D5
330
1F
100
AcDbEntity
  8
3-線
100
AcDbCircle
 10
227.0000090527025
 20
201.6000003814697
 30
0.0
 40
0.4000000059604646
100
AcDbArc
 50
0.0
 51
180.0000050089553
  0
ARC
  5
22D6
330
1F
100
AcDbEntity
  8
3-線
100
AcDbCircle
 10
230.4999995159593
 20
201.0000019073487
 30
0.0
 40
1.0
100
AcDbArc
 50
0.0
 51
90.00000250447845
  0
CIRCLE
  5
22E8
330
1F
100
AcDbEntity
  8
3-線
100
AcDbCircle
 10
184.0
 20
196.0
 30
0.0
 40
3.5
  0
CIRCLE
  5
22E9
330
1F
100
AcDbEntity
  8
3-線
100
AcDbCircle
 10
184.0
 20
196.0
 30
0.0
 40
3.0
  0
LINE
  5
22EA
330
1F
100
AcDbEntity
  8
3-線
100
AcDbLine
 10
185.5
 20
193.7999820709228
 30
0.0
 11
185.5
 21
198.5980758666992
 31
0.0
  0
LINE
  5
22EB
330
1F
100
AcDbEntity
  8
3-線
100
AcDbLine
 10
182.500003814697
 20
198.5980758666992
 30
0.0
 11
182.500003814697
 21
193.7999820709228
 31
0.0
  0
CIRCLE
  5
22EC
330
1F
100
AcDbEntity
  8
3-線
100
AcDbCircle
 10
184.0
 20
196.0
 30
0.0
 40
6.0
  0
LINE
  5
22ED
330
1F
100
AcDbEntity
  8
3-線
100
AcDbLine
 10
185.5
 20
193.7999820709228
 30
0.0
 11
185.2499961853027
 21
193.5499820709228
 31
0.0
  0
LINE
  5
22EE
330
1F
100
AcDbEntity
  8
3-線
100
AcDbLine
 10
182.500003814697
 20
193.7999820709228
 30
0.0
 11
185.5
 21
193.7999820709228
 31
0.0
  0
LINE
  5
22EF
330
1F
100
AcDbEntity
  8
3-線
100
AcDbLine
 10
185.2499961853027
 20
193.5499820709228
 30
0.0
 11
185.2499961853027
 21
193.272819519043
 31
0.0
  0
LINE
  5
22F0
330
1F
100
AcDbEntity
  8
3-線
100
AcDbLine
 10
182.75
 20
193.5499820709228
 30
0.0
 11
182.500003814697
 21
193.7999820709228
 31
0.0
  0
LINE
  5
22F1
330
1F
100
AcDbEntity
  8
3-線
100
AcDbLine
 10
182.7500038146972
 20
193.272819519043
 30
0.0
 11
182.7500038146972
 21
193.5499820709228
 31
0.0
  0
LINE
  5
22F2
330
1F
100
AcDbEntity
  8
3-線
100
AcDbLine
 10
185.2499961853027
 20
193.5499820709228
 30
0.0
 11
182.75
 21
193.5499820709228
 31
0.0
  0
CIRCLE
  5
2304
330
1F
100
AcDbEntity
  8
3-線
100
AcDbCircle
 10
248.0
 20
196.0
 30
0.0
 40
3.5
  0
CIRCLE
  5
2305
330
1F
100
AcDbEntity
  8
3-線
100
AcDbCircle
 10
248.0
 20
196.0
 30
0.0
 40
3.0
  0
LINE
  5
2306
330
1F
100
AcDbEntity
  8
3-線
100
AcDbLine
 10
250.4500160217285
 20
197.2499961853027
 30
0.0
 11
250.450023651123
 21
194.7500038146973
 31
0.0
  0
LINE
  5
2307
330
1F
100
AcDbEntity
  8
3-線
100
AcDbLine
 10
250.2000198364258
 20
194.5000076293945
 30
0.0
 11
250.2000198364258
 21
197.4999961853027
 31
0.0
  0
LINE
  5
2308
330
1F
100
AcDbEntity
  8
3-線
100
AcDbLine
 10
245.4019165039063
 20
194.5000076293945
 30
0.0
 11
250.2000198364258
 21
194.5000076293945
 31
0.0
  0
LINE
  5
2309
330
1F
100
AcDbEntity
  8
3-線
100
AcDbLine
 10
250.450023651123
 20
194.7500038146973
 30
0.0
 11
250.2000198364258
 21
194.5000076293945
 31
0.0
  0
LINE
  5
230A
330
1F
100
AcDbEntity
  8
3-線
100
AcDbLine
 10
250.727180480957
 20
194.7500038146973
 30
0.0
 11
250.450023651123
 21
194.7500038146973
 31
0.0
  0
LINE
  5
230B
330
1F
100
AcDbEntity
  8
3-線
100
AcDbLine
 10
250.2000198364258
 20
197.4999961853027
 30
0.0
 11
245.4019203186035
 21
197.4999961853027
 31
0.0
  0
LINE
  5
230C
330
1F
100
AcDbEntity
  8
3-線
100
AcDbLine
 10
250.2000198364258
 20
197.4999961853027
 30
0.0
 11
250.4500160217285
 21
197.2499961853027
 31
0.0
  0
LINE
  5
230D
330
1F
100
AcDbEntity
  8
3-線
100
AcDbLine
 10
250.4500160217285
 20
197.2499961853027
 30
0.0
 11
250.727180480957
 21
197.2499961853027
 31
0.0
  0
CIRCLE
  5
230E
330
1F
100
AcDbEntity
  8
3-線
100
AcDbCircle
 10
248.0
 20
196.0
 30
0.0
 40
6.0
  0
LINE
  5
2662
330
1F
100
AcDbEntity
  8
3-線
100
AcDbLine
 10
226.50000024954
 20
194.5857914573943
 30
0.0
 11
226.5000007784405
 21
190.796076186123
 31
0.0
  0
VIEWPORT
  5
23E8
330
23
100
AcDbEntity
 67
     1
  8
0
100
AcDbViewport
 10
4.799458060677594
 20
4.021899493660511
 30
0.0
 40
16.91665644184231
 41
8.992999745766947
 68
     1
 69
     1
 12
4.799458060677594
 22
4.021899493660511
 13
0.0
 23
0.0
 14
10.0
 24
10.0
 15
10.0
 25
10.0
 16
0.0
 26
0.0
 36
1.0
 17
0.0
 27
0.0
 37
0.0
 42
50.0
 43
0.0
 44
0.0
 45
8.992999745766947
 50
0.0
 51
0.0
 72
   100
 90
    32800
  1

281
     0
 71
     1
 74
     0
110
0.0
120
0.0
130
0.0
111
1.0
121
0.0
131
0.0
112
0.0
122
1.0
132
0.0
 79
     0
146
0.0
170
     0
  0
VIEWPORT
  5
23EA
330
23
100
AcDbEntity
 67
     1
  8
1-線
100
AcDbViewport
 10
4.799458285954992
 20
4.021899549979861
 30
0.0
 40
7.679133257527986
 41
6.43503927996778
 68
     2
 69
     2
 12
210.0000019558372
 22
148.5000013830561
 13
0.0
 23
0.0
 14
4.0
 24
4.0
 15
8.0
 25
8.0
 16
0.0
 26
0.0
 36
1.0
 17
0.0
 27
0.0
 37
0.0
 42
50.0
 43
0.0
 44
0.0
 45
356.8207987134424
 50
0.0
 51
0.0
 72
   100
 90
    33376
  1

281
     0
 71
     1
 74
     0
110
0.0
120
0.0
130
0.0
111
1.0
121
0.0
131
0.0
112
0.0
122
1.0
132
0.0
 79
     0
146
0.0
170
     0
  0
ENDSEC
  0
SECTION
  2
OBJECTS
  0
DICTIONARY
  5
C
330
0
100
AcDbDictionary
281
     1
  3
ACAD_COLOR
350
2624
  3
ACAD_GROUP
350
D
  3
ACAD_LAYOUT
350
1A
  3
ACAD_MATERIAL
350
2623
  3
ACAD_MLINESTYLE
350
17
  3
ACAD_PLOTSETTINGS
350
19
  3
ACAD_PLOTSTYLENAME
350
E
  3
AcadDim
350
1BC8
  3
AcDbVariableDictionary
350
985
  0
DICTIONARY
  5
474
330
1F
100
AcDbDictionary
280
     1
281
     1
  3
ACAD_LAYOUTSELFREF
360
4B6
  0
DICTIONARY
  5
478
330
23
100
AcDbDictionary
280
     1
281
     1
  3
ACAD_LAYOUTSELFREF
360
4B7
  0
DICTIONARY
  5
476
330
1B
100
AcDbDictionary
280
     1
281
     1
  3
ACAD_LAYOUTSELFREF
360
4B5
  0
DICTIONARY
  5
2624
102
{ACAD_REACTORS
330
C
102
}
330
C
100
AcDbDictionary
281
     1
  0
DICTIONARY
  5
D
102
{ACAD_REACTORS
330
C
102
}
330
C
100
AcDbDictionary
281
     1
  0
DICTIONARY
  5
1A
102
{ACAD_REACTORS
330
C
102
}
330
C
100
AcDbDictionary
281
     1
  3
Model
350
22
  3
ﾚｲｱｳﾄ1
350
1E
  3
ﾚｲｱｳﾄ2
350
26
  0
DICTIONARY
  5
2623
102
{ACAD_REACTORS
330
C
102
}
330
C
100
AcDbDictionary
281
     1
  0
DICTIONARY
  5
17
102
{ACAD_REACTORS
330
C
102
}
330
C
100
AcDbDictionary
281
     1
  3
Standard
350
18
  0
DICTIONARY
  5
19
102
{ACAD_REACTORS
330
C
102
}
330
C
100
AcDbDictionary
281
     1
  3
Kyouwa-A3
350
21F2
  0
ACDBDICTIONARYWDFLT
  5
E
102
{ACAD_REACTORS
330
C
102
}
330
C
100
AcDbDictionary
281
     1
  3
Normal
350
F
100
AcDbDictionaryWithDefault
340
F
1001
ACAD
1000
TREAT_AS_HARD
1070
     0
  0
XRECORD
  5
1BC8
102
{ACAD_REACTORS
330
C
102
}
330
C
100
AcDbXrecord
280
     1
 90
   990106
  3

 60
     4
 61
     0
 62
     4
 63
     4
 64
     1
 65
     0
 66
     0
 67
     2
 68
     1
 69
     0
 70
     0
 71
     0
 72
     0
 40
15.0
170
     1
340
0
  0
DICTIONARY
  5
985
102
{ACAD_REACTORS
330
C
102
}
330
C
100
AcDbDictionary
281
     1
  3
DIMASSOC
350
265B
  3
PROJECTNAME
350
265C
  3
SORTENTS
350
986
  0
XRECORD
  5
4B6
102
{ACAD_REACTORS
330
474
102
}
330
474
100
AcDbXrecord
280
     1
340
1F
  0
XRECORD
  5
4B7
102
{ACAD_REACTORS
330
478
102
}
330
478
100
AcDbXrecord
280
     1
340
23
  0
XRECORD
  5
4B5
102
{ACAD_REACTORS
330
476
102
}
330
476
100
AcDbXrecord
280
     1
340
1B
  0
LAYOUT
  5
22
102
{ACAD_REACTORS
330
1A
102
}
330
1A
100
AcDbPlotSettings
  1
Kyouwa-A3
  2
HP DesignJet 430.pc3
  4
User269
  6
OLE1
 40
4.995333194732666
 41
16.93333625793457
 42
4.995330810546875
 43
16.93331909179687
 44
296.9259948730469
 45
419.8619995117185
 46
-5.0
 47
-25.0
 48
0.0
 49
0.0
140
0.0
141
0.0
142
1.0
143
1.0
 70
 11952
 72
     1
 73
     1
 74
     2
  7
monochrome.ctb
 75
    16
147
1.0
 76
     0
 77
     2
 78
   300
148
0.0
149
0.0
100
AcDbLayout
  1
Model
 70
     1
 71
     0
 10
0.0
 20
0.0
 11
12.0
 21
9.0
 12
0.0
 22
0.0
 32
0.0
 14
0.0
 24
0.0
 34
0.0
 15
0.0
 25
0.0
 35
0.0
146
0.0
 13
0.0
 23
0.0
 33
0.0
 16
1.0
 26
0.0
 36
0.0
 17
0.0
 27
1.0
 37
0.0
 76
     0
330
1F
  0
LAYOUT
  5
1E
102
{ACAD_REACTORS
330
1A
102
}
330
1A
100
AcDbPlotSettings
  1

  2
C:\PROGRAM FILES\AUTOCAD LT 2000I\plotters\DWF Classic.pc3
  4

  6

 40
0.0
 41
0.0
 42
0.0
 43
0.0
 44
0.0
 45
0.0
 46
0.0
 47
0.0
 48
0.0
 49
0.0
140
0.0
141
0.0
142
1.0
143
1.0
 70
   688
 72
     0
 73
     0
 74
     5
  7
monochrome.ctb
 75
    16
147
1.0
 76
     0
 77
     2
 78
   300
148
0.0
149
0.0
100
AcDbLayout
  1
ﾚｲｱｳﾄ1
 70
     1
 71
     1
 10
0.0
 20
0.0
 11
420.0
 21
297.0
 12
0.0
 22
0.0
 32
0.0
 14
1.000000000000000E+20
 24
1.000000000000000E+20
 34
1.000000000000000E+20
 15
-1.000000000000000E+20
 25
-1.000000000000000E+20
 35
-1.000000000000000E+20
146
0.0
 13
0.0
 23
0.0
 33
0.0
 16
1.0
 26
0.0
 36
0.0
 17
0.0
 27
1.0
 37
0.0
 76
     0
330
1B
  0
LAYOUT
  5
26
102
{ACAD_REACTORS
330
1A
102
}
330
1A
100
AcDbPlotSettings
  1

  2
C:\PROGRAM FILES\AUTOCAD LT 2000I\plotters\DWF Classic.pc3
  4
ANSI_A_(8.50_x_11.00_Inches)
  6

 40
5.793749809265136
 41
17.79375076293945
 42
5.793746948242187
 43
17.79376220703125
 44
215.8999938964844
 45
279.3999938964844
 46
0.0
 47
0.0
 48
0.0
 49
0.0
140
0.0
141
0.0
142
1.0
143
1.0
 70
   688
 72
     0
 73
     1
 74
     5
  7
monochrome.ctb
 75
    16
147
1.0
 76
     0
 77
     2
 78
   300
148
0.0
149
0.0
100
AcDbLayout
  1
ﾚｲｱｳﾄ2
 70
     1
 71
     2
 10
-0.7005418191744587
 20
-0.2281003861915408
 11
10.29945794052965
 21
8.271899373512567
 12
0.0
 22
0.0
 32
0.0
 14
0.9598916571909988
 24
0.8043799099959727
 34
0.0
 15
8.639024914718985
 25
7.239419189963752
 35
0.0
146
0.0
 13
0.0
 23
0.0
 33
0.0
 16
1.0
 26
0.0
 36
0.0
 17
0.0
 27
1.0
 37
0.0
 76
     0
330
23
331
23E8
  0
MLINESTYLE
  5
18
102
{ACAD_REACTORS
330
17
102
}
330
17
100
AcDbMlineStyle
  2
STANDARD
 70
     0
  3

 62
   256
 51
90.0
 52
90.0
 71
     2
 49
0.5
 62
   256
  6
BYLAYER
 49
-0.5
 62
   256
  6
BYLAYER
  0
PLOTSETTINGS
  5
21F2
102
{ACAD_REACTORS
330
19
102
}
330
19
100
AcDbPlotSettings
  1
Kyouwa-A3
  2
HP DesignJet 430.pc3
  4
User269
  6
OLE1
 40
4.995333194732666
 41
16.93333625793457
 42
4.995330810546875
 43
16.93331909179687
 44
296.9259948730469
 45
419.8619995117185
 46
-5.0
 47
-25.0
 48
0.0
 49
0.0
140
0.0
141
0.0
142
1.0
143
1.0
 70
  1712
 72
     1
 73
     1
 74
     2
  7
monochrome.ctb
 75
    16
147
1.0
 76
     0
 77
     2
 78
   300
148
0.0
149
0.0
  0
ACDBPLACEHOLDER
  5
F
102
{ACAD_REACTORS
330
E
102
}
330
E
  0
DICTIONARYVAR
  5
265B
102
{ACAD_REACTORS
330
985
102
}
330
985
100
DictionaryVariables
280
     0
  1
1
  0
DICTIONARYVAR
  5
265C
102
{ACAD_REACTORS
330
985
102
}
330
985
100
DictionaryVariables
280
     0
  1

  0
DICTIONARYVAR
  5
986
102
{ACAD_REACTORS
330
985
102
}
330
985
100
DictionaryVariables
280
     0
  1
96
  0
ENDSEC
  0
EOF
