  0
SECTION
  2
HEADER
  9
$ACADVER
  1
AC1018
  9
$ACADMAINTVER
 70
     2
  9
$DWGCODEPAGE
  3
ANSI_932
  9
$INSBASE
 10
0.0
 20
0.0
 30
0.0
  9
$EXTMIN
 10
178.9819347800011
 20
189.2867440759282
 30
-0.000000000000013
  9
$EXTMAX
 10
253.0023201194154
 20
199.506088834845
 30
0.0000000000000023
  9
$LIMMIN
 10
0.0
 20
0.0
  9
$LIMMAX
 10
420.0
 20
297.0
  9
$ORTHOMODE
 70
     1
  9
$REGENMODE
 70
     1
  9
$FILLMODE
 70
     1
  9
$QTEXTMODE
 70
     0
  9
$MIRRTEXT
 70
     1
  9
$LTSCALE
 40
0.5
  9
$ATTMODE
 70
     1
  9
$TEXTSIZE
 40
3.0
  9
$TRACEWID
 40
1.0
  9
$TEXTSTYLE
  7
Standard
  9
$CLAYER
  8
6-線
  9
$CELTYPE
  6
ByLayer
  9
$CECOLOR
 62
   256
  9
$CELTSCALE
 40
1.0
  9
$DISPSILH
 70
     0
  9
$DIMSCALE
 40
1.0
  9
$DIMASZ
 40
2.5
  9
$DIMEXO
 40
0.0
  9
$DIMDLI
 40
3.75
  9
$DIMRND
 40
0.0
  9
$DIMDLE
 40
0.0
  9
$DIMEXE
 40
1.0
  9
$DIMTP
 40
0.0
  9
$DIMTM
 40
0.0
  9
$DIMTXT
 40
3.0
  9
$DIMCEN
 40
0.0
  9
$DIMTSZ
 40
0.0
  9
$DIMTOL
 70
     0
  9
$DIMLIM
 70
     0
  9
$DIMTIH
 70
     0
  9
$DIMTOH
 70
     0
  9
$DIMSE1
 70
     0
  9
$DIMSE2
 70
     0
  9
$DIMTAD
 70
     1
  9
$DIMZIN
 70
     8
  9
$DIMBLK
  1
Open30
  9
$DIMASO
 70
     1
  9
$DIMSHO
 70
     1
  9
$DIMPOST
  1

  9
$DIMAPOST
  1

  9
$DIMALT
 70
     0
  9
$DIMALTD
 70
     3
  9
$DIMALTF
 40
0.1
  9
$DIMLFAC
 40
1.0
  9
$DIMTOFL
 70
     1
  9
$DIMTVP
 40
0.0
  9
$DIMTIX
 70
     0
  9
$DIMSOXD
 70
     0
  9
$DIMSAH
 70
     0
  9
$DIMBLK1
  1

  9
$DIMBLK2
  1

  9
$DIMSTYLE
  2
Kyouwa
  9
$DIMCLRD
 70
     0
  9
$DIMCLRE
 70
     0
  9
$DIMCLRT
 70
     0
  9
$DIMTFAC
 40
0.7
  9
$DIMGAP
 40
1.0
  9
$DIMJUST
 70
     0
  9
$DIMSD1
 70
     0
  9
$DIMSD2
 70
     0
  9
$DIMTOLJ
 70
     0
  9
$DIMTZIN
 70
     8
  9
$DIMALTZ
 70
     0
  9
$DIMALTTZ
 70
     0
  9
$DIMUPT
 70
     0
  9
$DIMDEC
 70
     2
  9
$DIMTDEC
 70
     2
  9
$DIMALTU
 70
     2
  9
$DIMALTTD
 70
     3
  9
$DIMTXSTY
  7
Standard
  9
$DIMAUNIT
 70
     0
  9
$DIMADEC
 70
     0
  9
$DIMALTRND
 40
0.0
  9
$DIMAZIN
 70
     0
  9
$DIMDSEP
 70
    46
  9
$DIMATFIT
 70
     3
  9
$DIMFRAC
 70
     0
  9
$DIMLDRBLK
  1
Open30
  9
$DIMLUNIT
 70
     2
  9
$DIMLWD
 70
    -2
  9
$DIMLWE
 70
    -2
  9
$DIMTMOVE
 70
     0
  9
$LUNITS
 70
     2
  9
$LUPREC
 70
     4
  9
$SKETCHINC
 40
1.0
  9
$FILLETRAD
 40
1.0
  9
$AUNITS
 70
     0
  9
$AUPREC
 70
     0
  9
$MENU
  1
.
  9
$ELEVATION
 40
0.0
  9
$PELEVATION
 40
0.0
  9
$THICKNESS
 40
0.0
  9
$LIMCHECK
 70
     0
  9
$CHAMFERA
 40
0.6
  9
$CHAMFERB
 40
0.6
  9
$CHAMFERC
 40
20.0
  9
$CHAMFERD
 40
0.0
  9
$SKPOLY
 70
     0
  9
$TDCREATE
 40
2452108.402762732
  9
$TDUCREATE
 40
2452108.027762732
  9
$TDUPDATE
 40
2454348.739758924
  9
$TDUUPDATE
 40
2454348.364758924
  9
$TDINDWG
 40
1.5133019329
  9
$TDUSRTIMER
 40
1.5133015741
  9
$USRTIMER
 70
     1
  9
$ANGBASE
 50
0.0
  9
$ANGDIR
 70
     0
  9
$PDMODE
 70
     0
  9
$PDSIZE
 40
0.0
  9
$PLINEWID
 40
0.0
  9
$SPLFRAME
 70
     0
  9
$SPLINETYPE
 70
     6
  9
$SPLINESEGS
 70
     8
  9
$HANDSEED
  5
2D2B
  9
$SURFTAB1
 70
     6
  9
$SURFTAB2
 70
     6
  9
$SURFTYPE
 70
     6
  9
$SURFU
 70
     6
  9
$SURFV
 70
     6
  9
$UCSBASE
  2

  9
$UCSNAME
  2

  9
$UCSORG
 10
0.0
 20
0.0
 30
0.0
  9
$UCSXDIR
 10
1.0
 20
0.0
 30
0.0
  9
$UCSYDIR
 10
0.0
 20
1.0
 30
0.0
  9
$UCSORTHOREF
  2

  9
$UCSORTHOVIEW
 70
     0
  9
$UCSORGTOP
 10
0.0
 20
0.0
 30
0.0
  9
$UCSORGBOTTOM
 10
0.0
 20
0.0
 30
0.0
  9
$UCSORGLEFT
 10
0.0
 20
0.0
 30
0.0
  9
$UCSORGRIGHT
 10
0.0
 20
0.0
 30
0.0
  9
$UCSORGFRONT
 10
0.0
 20
0.0
 30
0.0
  9
$UCSORGBACK
 10
0.0
 20
0.0
 30
0.0
  9
$PUCSBASE
  2

  9
$PUCSNAME
  2

  9
$PUCSORG
 10
0.0
 20
0.0
 30
0.0
  9
$PUCSXDIR
 10
1.0
 20
0.0
 30
0.0
  9
$PUCSYDIR
 10
0.0
 20
1.0
 30
0.0
  9
$PUCSORTHOREF
  2

  9
$PUCSORTHOVIEW
 70
     0
  9
$PUCSORGTOP
 10
0.0
 20
0.0
 30
0.0
  9
$PUCSORGBOTTOM
 10
0.0
 20
0.0
 30
0.0
  9
$PUCSORGLEFT
 10
0.0
 20
0.0
 30
0.0
  9
$PUCSORGRIGHT
 10
0.0
 20
0.0
 30
0.0
  9
$PUCSORGFRONT
 10
0.0
 20
0.0
 30
0.0
  9
$PUCSORGBACK
 10
0.0
 20
0.0
 30
0.0
  9
$USERI1
 70
     0
  9
$USERI2
 70
     0
  9
$USERI3
 70
     0
  9
$USERI4
 70
     0
  9
$USERI5
 70
     0
  9
$USERR1
 40
0.0
  9
$USERR2
 40
0.0
  9
$USERR3
 40
0.0
  9
$USERR4
 40
0.0
  9
$USERR5
 40
0.0
  9
$WORLDVIEW
 70
     1
  9
$SHADEDGE
 70
     3
  9
$SHADEDIF
 70
    70
  9
$TILEMODE
 70
     1
  9
$MAXACTVP
 70
    48
  9
$PINSBASE
 10
0.0
 20
0.0
 30
0.0
  9
$PLIMCHECK
 70
     0
  9
$PEXTMIN
 10
0.9598916571909988
 20
0.8043799099959727
 30
0.0
  9
$PEXTMAX
 10
8.639024914718985
 20
7.239419189963752
 30
0.0
  9
$PLIMMIN
 10
-0.7005418191744587
 20
-0.2281003861915408
  9
$PLIMMAX
 10
10.29945794052965
 20
8.271899373512567
  9
$UNITMODE
 70
     0
  9
$VISRETAIN
 70
     1
  9
$PLINEGEN
 70
     0
  9
$PSLTSCALE
 70
     1
  9
$TREEDEPTH
 70
  3020
  9
$CMLSTYLE
  2
Standard
  9
$CMLJUST
 70
     0
  9
$CMLSCALE
 40
20.0
  9
$PROXYGRAPHICS
 70
     1
  9
$MEASUREMENT
 70
     0
  9
$CELWEIGHT
370
    -1
  9
$ENDCAPS
280
     0
  9
$JOINSTYLE
280
     0
  9
$LWDISPLAY
290
     0
  9
$INSUNITS
 70
     4
  9
$HYPERLINKBASE
  1

  9
$STYLESHEET
  1
MONOCHROME.CTB
  9
$XEDIT
290
     1
  9
$CEPSNTYPE
380
     0
  9
$PSTYLEMODE
290
     1
  9
$FINGERPRINTGUID
  2
{D5BDD00D-7A95-11D5-B0EC-00E0181A799A}
  9
$VERSIONGUID
  2
{2B771CFB-C891-4359-9903-A3248903091B}
  9
$EXTNAMES
290
     1
  9
$PSVPSCALE
 40
0.0
  9
$OLESTARTUP
290
     0
  9
$SORTENTS
280
    96
  9
$INDEXCTL
280
     0
  9
$HIDETEXT
280
     0
  9
$XCLIPFRAME
290
     0
  9
$HALOGAP
280
     0
  9
$OBSCOLOR
 70
   257
  9
$OBSLTYPE
280
     0
  9
$INTERSECTIONDISPLAY
280
     0
  9
$INTERSECTIONCOLOR
 70
   257
  9
$DIMASSOC
280
     1
  9
$PROJECTNAME
  1

  0
ENDSEC
  0
SECTION
  2
CLASSES
  0
CLASS
  1
ACDBDICTIONARYWDFLT
  2
AcDbDictionaryWithDefault
  3
ObjectDBX Classes
 90
        0
 91
        1
280
     0
281
     0
  0
CLASS
  1
PLOTSETTINGS
  2
AcDbPlotSettings
  3
ObjectDBX Classes
 90
        0
 91
        1
280
     0
281
     0
  0
CLASS
  1
DICTIONARYVAR
  2
AcDbDictionaryVar
  3
ObjectDBX Classes
 90
        0
 91
        3
280
     0
281
     0
  0
ENDSEC
  0
SECTION
  2
TABLES
  0
TABLE
  2
VPORT
  5
8
330
0
100
AcDbSymbolTable
 70
     3
  0
VPORT
  5
2D2A
330
8
100
AcDbSymbolTableRecord
100
AcDbViewportTableRecord
  2
*Active
 70
     0
 10
0.0
 20
0.0
 11
1.0
 21
1.0
 12
215.9921274497082
 22
194.3964164553866
 13
0.0
 23
0.0
 14
4.0
 24
4.0
 15
8.0
 25
8.0
 16
0.0
 26
0.0
 36
1.0
 17
0.0
 27
0.0
 37
0.0
 40
34.516741195895
 41
2.155234657039711
 42
50.0
 43
0.0
 44
0.0
 50
0.0
 51
0.0
 71
     0
 72
   100
 73
     1
 74
     3
 75
     0
 76
     1
 77
     0
 78
     0
281
     0
 65
     1
110
0.0
120
0.0
130
0.0
111
1.0
121
0.0
131
0.0
112
0.0
122
1.0
132
0.0
 79
     0
146
0.0
  0
ENDTAB
  0
TABLE
  2
LTYPE
  5
5
330
0
100
AcDbSymbolTable
 70
     6
  0
LTYPE
  5
14
330
5
100
AcDbSymbolTableRecord
100
AcDbLinetypeTableRecord
  2
ByBlock
 70
     0
  3

 72
    65
 73
     0
 40
0.0
  0
LTYPE
  5
15
330
5
100
AcDbSymbolTableRecord
100
AcDbLinetypeTableRecord
  2
ByLayer
 70
     0
  3

 72
    65
 73
     0
 40
0.0
  0
LTYPE
  5
16
330
5
100
AcDbSymbolTableRecord
100
AcDbLinetypeTableRecord
  2
Continuous
 70
     0
  3
Solid line
 72
    65
 73
     0
 40
0.0
  0
LTYPE
  5
2D
330
5
100
AcDbSymbolTableRecord
100
AcDbLinetypeTableRecord
  2
HIDDEN2
 70
     0
  3
Hidden (.5x) _ _ _ _ _ _ _ _ _ _ _ _ _ _ _ _ _
 72
    65
 73
     2
 40
4.762499999999998
 49
3.174999999999998
 74
     0
 49
-1.587499999999999
 74
     0
  0
LTYPE
  5
2E
330
5
100
AcDbSymbolTableRecord
100
AcDbLinetypeTableRecord
  2
CENTER2
 70
     0
  3
Center (.5x) ___ _ ___ _ ___ _ ___ _ ___ _ ___
 72
    65
 73
     4
 40
28.575
 49
19.05
 74
     0
 49
-3.174999999999998
 74
     0
 49
3.174999999999998
 74
     0
 49
-3.174999999999998
 74
     0
  0
LTYPE
  5
2F
330
5
100
AcDbSymbolTableRecord
100
AcDbLinetypeTableRecord
  2
PHANTOM2
 70
     0
  3
Phantom (.5x) ___ _ _ ___ _ _ ___ _ _ ___ _ _
 72
    65
 73
     6
 40
31.75
 49
15.875
 74
     0
 49
-3.174999999999998
 74
     0
 49
3.174999999999998
 74
     0
 49
-3.174999999999998
 74
     0
 49
3.174999999999998
 74
     0
 49
-3.174999999999998
 74
     0
  0
LTYPE
  5
FD
330
5
100
AcDbSymbolTableRecord
100
AcDbLinetypeTableRecord
  2
CENTER
 70
     0
  3
Center ____ _ ____ _ ____ _ ____ _ ____ _ ____
 72
    65
 73
     4
 40
50.8
 49
31.75
 74
     0
 49
-6.349999999999997
 74
     0
 49
6.349999999999997
 74
     0
 49
-6.349999999999997
 74
     0
  0
LTYPE
  5
1DD8
330
5
100
AcDbSymbolTableRecord
100
AcDbLinetypeTableRecord
  2
HIDDEN
 70
     0
  3
_ _ _ _ _ _ _ _ _ _ _ _ _ _ _ _ _ _ _ _ _ _
 72
    65
 73
     2
 40
0.25
 49
0.125
 74
     0
 49
-0.125
 74
     0
  0
ENDTAB
  0
TABLE
  2
LAYER
  5
2
330
0
100
AcDbSymbolTable
 70
    17
  0
LAYER
  5
10
330
2
100
AcDbSymbolTableRecord
100
AcDbLayerTableRecord
  2
0
 70
     0
 62
     7
  6
Continuous
370
   100
390
F
  0
LAYER
  5
30
330
2
100
AcDbSymbolTableRecord
100
AcDbLayerTableRecord
  2
1-線
 70
     0
 62
     3
  6
Continuous
370
    18
390
F
  0
LAYER
  5
31
330
2
100
AcDbSymbolTableRecord
100
AcDbLayerTableRecord
  2
1-破線
 70
     0
 62
     3
  6
HIDDEN2
370
    18
390
F
  0
LAYER
  5
32
330
2
100
AcDbSymbolTableRecord
100
AcDbLayerTableRecord
  2
1-1点
 70
     0
 62
     3
  6
CENTER2
370
    18
390
F
  0
LAYER
  5
33
330
2
100
AcDbSymbolTableRecord
100
AcDbLayerTableRecord
  2
1-2点
 70
     0
 62
     3
  6
PHANTOM2
370
    18
390
F
  0
LAYER
  5
3A
330
2
100
AcDbSymbolTableRecord
100
AcDbLayerTableRecord
  2
2-1点
 70
     0
 62
     6
  6
CENTER2
370
    18
390
F
  0
LAYER
  5
3B
330
2
100
AcDbSymbolTableRecord
100
AcDbLayerTableRecord
  2
2-2点
 70
     0
 62
     6
  6
PHANTOM2
370
    18
390
F
  0
LAYER
  5
3C
330
2
100
AcDbSymbolTableRecord
100
AcDbLayerTableRecord
  2
2-線
 70
     0
 62
     6
  6
Continuous
370
    18
390
F
  0
LAYER
  5
3D
330
2
100
AcDbSymbolTableRecord
100
AcDbLayerTableRecord
  2
2-破線
 70
     0
 62
     6
  6
HIDDEN2
370
    18
390
F
  0
LAYER
  5
3E
330
2
100
AcDbSymbolTableRecord
100
AcDbLayerTableRecord
  2
3-線
 70
     0
 62
     4
  6
Continuous
370
    35
390
F
  0
LAYER
  5
40
330
2
100
AcDbSymbolTableRecord
100
AcDbLayerTableRecord
  2
4-線
 70
     0
 62
     2
  6
Continuous
370
    35
390
F
  0
LAYER
  5
41
330
2
100
AcDbSymbolTableRecord
100
AcDbLayerTableRecord
  2
5-線
 70
     0
 62
     5
  6
Continuous
370
    35
390
F
  0
LAYER
  5
42
330
2
100
AcDbSymbolTableRecord
100
AcDbLayerTableRecord
  2
5-破線
 70
     0
 62
     5
  6
HIDDEN2
370
    18
390
F
  0
LAYER
  5
43
330
2
100
AcDbSymbolTableRecord
100
AcDbLayerTableRecord
  2
6-線
 70
     0
 62
     1
  6
Continuous
370
    35
390
F
  0
LAYER
  5
44
330
2
100
AcDbSymbolTableRecord
100
AcDbLayerTableRecord
  2
6-破線
 70
     0
 62
     1
  6
HIDDEN2
370
    18
390
F
  0
LAYER
  5
FF
330
2
100
AcDbSymbolTableRecord
100
AcDbLayerTableRecord
  2
4
 70
     0
 62
     6
  6
Continuous
370
    18
390
F
  0
LAYER
  5
1DD
330
2
100
AcDbSymbolTableRecord
100
AcDbLayerTableRecord
  2
Defpoints
 70
     4
 62
     7
  6
Continuous
290
     0
370
    -3
390
F
  0
ENDTAB
  0
TABLE
  2
STYLE
  5
3
330
0
100
AcDbSymbolTable
 70
     3
  0
STYLE
  5
11
330
3
100
AcDbSymbolTableRecord
100
AcDbTextStyleTableRecord
  2
Standard
 70
     0
 40
0.0
 41
1.0
 50
0.0
 71
     0
 42
3.0
  3
txt.shx
  4
bigfont.shx
  0
STYLE
  5
2C
330
3
100
AcDbSymbolTableRecord
100
AcDbTextStyleTableRecord
  2

 70
     1
 40
0.0
 41
1.0
 50
0.0
 71
     0
 42
2.5
  3
ltypeshp.shx
  4

  0
STYLE
  5
9C
330
3
100
AcDbSymbolTableRecord
100
AcDbTextStyleTableRecord
  2
縦
 70
     4
 40
0.0
 41
1.0
 50
0.0
 71
     0
 42
2.799999999999998
  3
txt.shx
  4
bigfont.shx
  0
ENDTAB
  0
TABLE
  2
VIEW
  5
6
330
0
100
AcDbSymbolTable
 70
     1
  0
VIEW
  5
502
330
6
100
AcDbSymbolTableRecord
100
AcDbViewTableRecord
  2
OLE1
 70
     0
 40
233.3949522673788
 10
309.4656970073121
 20
48.01785105749138
 41
232.3911030103148
 11
0.0
 21
0.0
 31
1.0
 12
0.0
 22
0.0
 32
0.0
 42
50.0
 43
0.0
 44
0.0
 50
0.0
 71
     0
281
     0
 72
     0
  0
ENDTAB
  0
TABLE
  2
UCS
  5
7
330
0
100
AcDbSymbolTable
 70
     0
  0
ENDTAB
  0
TABLE
  2
APPID
  5
9
330
0
100
AcDbSymbolTable
 70
     1
  0
APPID
  5
12
330
9
100
AcDbSymbolTableRecord
100
AcDbRegAppTableRecord
  2
ACAD
 70
     0
  0
ENDTAB
  0
TABLE
  2
DIMSTYLE
  5
A
330
0
100
AcDbSymbolTable
 70
     4
100
AcDbDimStyleTable
 71
     1
340
1C8
  0
DIMSTYLE
105
27
330
A
100
AcDbSymbolTableRecord
100
AcDbDimStyleTableRecord
  2
ISO-25
 70
     0
 41
2.5
 42
0.625
 43
3.75
 44
1.25
 73
     0
 74
     0
 77
     1
 78
     8
140
2.5
141
2.5
143
0.03937007874016
147
0.625
171
     3
172
     1
271
     2
272
     2
274
     3
283
     0
284
     8
340
11
  0
DIMSTYLE
105
100
330
A
100
AcDbSymbolTableRecord
100
AcDbDimStyleTableRecord
  2
JIS
 70
     0
 41
2.5
 42
1.0
 43
7.0
 44
1.0
 73
     0
 74
     0
 77
     1
 78
     8
140
2.5
141
0.0
143
0.0394
147
0.0
172
     1
174
     1
175
     1
340
11
  0
DIMSTYLE
105
1C8
330
A
100
AcDbSymbolTableRecord
100
AcDbDimStyleTableRecord
  2
Kyouwa
 70
     0
 41
2.5
 42
0.0
 43
3.75
 44
1.0
 73
     0
 74
     0
 77
     1
 78
     8
140
3.0
141
0.0
143
0.1
146
0.7
147
1.0
171
     3
172
     1
271
     2
272
     2
274
     3
283
     0
284
     8
340
11
341
1C2
342
1C2
  0
DIMSTYLE
105
1DD9
330
A
100
AcDbSymbolTableRecord
100
AcDbDimStyleTableRecord
  2
Standard
 70
     0
340
11
  0
ENDTAB
  0
TABLE
  2
BLOCK_RECORD
  5
1
330
0
100
AcDbSymbolTable
 70
    19
  0
BLOCK_RECORD
  5
1F
102
{ACAD_XDICTIONARY
360
474
102
}
330
1
100
AcDbSymbolTableRecord
100
AcDbBlockTableRecord
  2
*Model_Space
340
22
  0
BLOCK_RECORD
  5
23
102
{ACAD_XDICTIONARY
360
478
102
}
330
1
100
AcDbSymbolTableRecord
100
AcDbBlockTableRecord
  2
*Paper_Space
340
26
  0
BLOCK_RECORD
  5
1B
102
{ACAD_XDICTIONARY
360
476
102
}
330
1
100
AcDbSymbolTableRecord
100
AcDbBlockTableRecord
  2
*Paper_Space0
340
1E
  0
BLOCK_RECORD
  5
101
330
1
100
AcDbSymbolTableRecord
100
AcDbBlockTableRecord
  2
A$C77221E2E
340
0
  0
BLOCK_RECORD
  5
1C2
330
1
100
AcDbSymbolTableRecord
100
AcDbBlockTableRecord
  2
_Open30
340
0
102
{BLKREFS
331
2C67
331
2C68
331
2C70
331
2C71
331
2C79
331
2C7A
331
2C84
331
2C85
331
2C8D
331
2C8E
331
2C98
331
2C99
331
2CA3
331
2CA4
331
2CAC
331
2CAD
331
2CB5
331
2CB6
331
2CBE
331
2CBF
331
2CC9
331
2CCA
331
2CD4
331
2CD5
331
2CE1
331
2CE2
331
2CFF
331
2D00
331
2D0C
331
2D0D
102
}
  0
BLOCK_RECORD
  5
504
330
1
100
AcDbSymbolTableRecord
100
AcDbBlockTableRecord
  2
A$C56C037E7
340
0
  0
BLOCK_RECORD
  5
28C2
330
1
100
AcDbSymbolTableRecord
100
AcDbBlockTableRecord
  2
*D4
340
0
  0
BLOCK_RECORD
  5
28CE
330
1
100
AcDbSymbolTableRecord
100
AcDbBlockTableRecord
  2
*D5
340
0
  0
BLOCK_RECORD
  5
28DA
330
1
100
AcDbSymbolTableRecord
100
AcDbBlockTableRecord
  2
*D6
340
0
  0
BLOCK_RECORD
  5
28E6
330
1
100
AcDbSymbolTableRecord
100
AcDbBlockTableRecord
  2
*D7
340
0
  0
BLOCK_RECORD
  5
28F2
330
1
100
AcDbSymbolTableRecord
100
AcDbBlockTableRecord
  2
*D8
340
0
  0
BLOCK_RECORD
  5
28FE
330
1
100
AcDbSymbolTableRecord
100
AcDbBlockTableRecord
  2
*D9
340
0
  0
BLOCK_RECORD
  5
290C
330
1
100
AcDbSymbolTableRecord
100
AcDbBlockTableRecord
  2
*D10
340
0
  0
BLOCK_RECORD
  5
2918
330
1
100
AcDbSymbolTableRecord
100
AcDbBlockTableRecord
  2
*D11
340
0
  0
BLOCK_RECORD
  5
2924
330
1
100
AcDbSymbolTableRecord
100
AcDbBlockTableRecord
  2
*D12
340
0
  0
BLOCK_RECORD
  5
2930
330
1
100
AcDbSymbolTableRecord
100
AcDbBlockTableRecord
  2
*D13
340
0
  0
BLOCK_RECORD
  5
293C
330
1
100
AcDbSymbolTableRecord
100
AcDbBlockTableRecord
  2
*D14
340
0
  0
BLOCK_RECORD
  5
2948
330
1
100
AcDbSymbolTableRecord
100
AcDbBlockTableRecord
  2
*D15
340
0
  0
BLOCK_RECORD
  5
2CDB
330
1
100
AcDbSymbolTableRecord
100
AcDbBlockTableRecord
  2
*D16
340
0
  0
BLOCK_RECORD
  5
2CFB
330
1
100
AcDbSymbolTableRecord
100
AcDbBlockTableRecord
  2
*D17
340
0
  0
BLOCK_RECORD
  5
2D08
330
1
100
AcDbSymbolTableRecord
100
AcDbBlockTableRecord
  2
*D18
340
0
  0
ENDTAB
  0
ENDSEC
  0
SECTION
  2
BLOCKS
  0
BLOCK
  5
20
330
1F
100
AcDbEntity
  8
0
100
AcDbBlockBegin
  2
*Model_Space
 70
     0
 10
0.0
 20
0.0
 30
0.0
  3
*Model_Space
  1

  0
ENDBLK
  5
21
330
1F
100
AcDbEntity
  8
0
100
AcDbBlockEnd
  0
BLOCK
  5
24
330
23
100
AcDbEntity
 67
     1
  8
0
100
AcDbBlockBegin
  2
*Paper_Space
 70
     0
 10
0.0
 20
0.0
 30
0.0
  3
*Paper_Space
  1

  0
ENDBLK
  5
25
330
23
100
AcDbEntity
 67
     1
  8
0
100
AcDbBlockEnd
  0
BLOCK
  5
1C
330
1B
100
AcDbEntity
  8
0
100
AcDbBlockBegin
  2
*Paper_Space0
 70
     0
 10
0.0
 20
0.0
 30
0.0
  3
*Paper_Space0
  1

  0
ENDBLK
  5
1D
330
1B
100
AcDbEntity
  8
0
100
AcDbBlockEnd
  0
BLOCK
  5
10C
330
101
100
AcDbEntity
  8
0
100
AcDbBlockBegin
  2
A$C77221E2E
 70
     0
 10
0.0
 20
0.0
 30
0.0
  3
A$C77221E2E
  1

  0
TEXT
  5
102
330
101
100
AcDbEntity
  8
4
  6
CENTER
100
AcDbText
 10
-1.383100251097403
 20
-4.957558222773966
 30
0.0
 40
5.5
  1
0
 50
90.0
100
AcDbText
  0
TEXT
  5
103
330
101
100
AcDbEntity
  8
4
  6
CENTER
100
AcDbText
 10
-1.383100251097403
 20
-10.95755822277397
 30
0.0
 40
5.5
  1
9
 50
90.0
100
AcDbText
  0
TEXT
  5
104
330
101
100
AcDbEntity
  8
4
  6
CENTER
100
AcDbText
 10
-1.383100251097403
 20
-16.95755822277397
 30
0.0
 40
5.5
  1
8
 50
90.0
100
AcDbText
  0
TEXT
  5
105
330
101
100
AcDbEntity
  8
4
  6
CENTER
100
AcDbText
 10
-1.383100251097403
 20
-22.95755822277397
 30
0.0
 40
5.5
  1
7
 50
90.0
100
AcDbText
  0
TEXT
  5
106
330
101
100
AcDbEntity
  8
4
  6
CENTER
100
AcDbText
 10
-1.383100251097403
 20
-28.95755822277397
 30
0.0
 40
5.5
  1
6
 50
90.0
100
AcDbText
  0
TEXT
  5
107
330
101
100
AcDbEntity
  8
4
  6
CENTER
100
AcDbText
 10
-1.383100251097403
 20
-34.95755822277397
 30
0.0
 40
5.5
  1
5
 50
90.0
100
AcDbText
  0
TEXT
  5
108
330
101
100
AcDbEntity
  8
4
  6
CENTER
100
AcDbText
 10
-1.383100251097403
 20
-40.95755822277395
 30
0.0
 40
5.5
  1
4
 50
90.0
100
AcDbText
  0
TEXT
  5
109
330
101
100
AcDbEntity
  8
4
  6
CENTER
100
AcDbText
 10
-1.383100251097403
 20
-46.95755822277397
 30
0.0
 40
5.5
  1
3
 50
90.0
100
AcDbText
  0
TEXT
  5
10A
330
101
100
AcDbEntity
  8
4
  6
CENTER
100
AcDbText
 10
-1.383100251097403
 20
-52.95755822277397
 30
0.0
 40
5.5
  1
2
 50
90.0
100
AcDbText
  0
TEXT
  5
10B
330
101
100
AcDbEntity
  8
4
  6
CENTER
100
AcDbText
 10
-1.383100251097403
 20
-58.95755822277397
 30
0.0
 40
5.5
  1
1
 50
90.0
100
AcDbText
  0
ENDBLK
  5
10D
330
101
100
AcDbEntity
  8
0
100
AcDbBlockEnd
  0
BLOCK
  5
1C6
330
1C2
100
AcDbEntity
  8
0
100
AcDbBlockBegin
  2
_Open30
 70
     0
 10
0.0
 20
0.0
 30
0.0
  3
_Open30
  1

  0
LINE
  5
1C3
330
1C2
100
AcDbEntity
  8
0
  6
ByBlock
 62
     0
370
    -2
100
AcDbLine
 10
-1.0
 20
0.26794919
 30
0.0
 11
0.0
 21
0.0
 31
0.0
  0
LINE
  5
1C4
330
1C2
100
AcDbEntity
  8
0
  6
ByBlock
 62
     0
370
    -2
100
AcDbLine
 10
0.0
 20
0.0
 30
0.0
 11
-1.0
 21
-0.26794919
 31
0.0
  0
LINE
  5
1C5
330
1C2
100
AcDbEntity
  8
0
  6
ByBlock
 62
     0
370
    -2
100
AcDbLine
 10
0.0
 20
0.0
 30
0.0
 11
-1.0
 21
0.0
 31
0.0
  0
ENDBLK
  5
1C7
330
1C2
100
AcDbEntity
  8
0
100
AcDbBlockEnd
  0
BLOCK
  5
5AA
330
504
100
AcDbEntity
  8
0
100
AcDbBlockBegin
  2
A$C56C037E7
 70
     0
 10
0.0
 20
0.0
 30
0.0
  3
A$C56C037E7
  1

  0
LINE
  5
505
330
504
100
AcDbEntity
  8
0
100
AcDbLine
 10
420.0
 20
0.0
 30
0.0
 11
410.0
 21
0.0
 31
0.0
  0
LINE
  5
506
330
504
100
AcDbEntity
  8
0
100
AcDbLine
 10
0.0
 20
297.0
 30
0.0
 11
0.0
 21
287.0
 31
0.0
  0
LINE
  5
507
330
504
100
AcDbEntity
  8
0
100
AcDbLine
 10
420.0
 20
297.0
 30
0.0
 11
420.0
 21
287.0
 31
0.0
  0
LINE
  5
508
330
504
100
AcDbEntity
  8
0
100
AcDbLine
 10
0.0
 20
297.0
 30
0.0
 11
25.0
 21
297.0
 31
0.0
  0
LINE
  5
509
330
504
100
AcDbEntity
  8
3-線
 62
     4
100
AcDbLine
 10
26.0
 20
287.0
 30
0.0
 11
410.0
 21
287.0
 31
0.0
  0
LINE
  5
50A
330
504
100
AcDbEntity
  8
3-線
100
AcDbLine
 10
26.0
 20
287.0
 30
0.0
 11
26.0
 21
10.0
 31
0.0
  0
LINE
  5
50B
330
504
100
AcDbEntity
  8
3-線
100
AcDbLine
 10
26.0
 20
10.0
 30
0.0
 11
410.0
 21
10.0
 31
0.0
  0
LINE
  5
50C
330
504
100
AcDbEntity
  8
3-線
100
AcDbLine
 10
410.0
 20
287.0
 30
0.0
 11
410.0
 21
10.0
 31
0.0
  0
LINE
  5
50D
330
504
100
AcDbEntity
  8
0
100
AcDbLine
 10
410.0
 20
297.0
 30
0.0
 11
420.0
 21
297.0
 31
0.0
  0
LINE
  5
50E
330
504
100
AcDbEntity
  8
0
100
AcDbLine
 10
420.0
 20
10.0
 30
0.0
 11
420.0
 21
0.0
 31
0.0
  0
LINE
  5
50F
330
504
100
AcDbEntity
  8
0
100
AcDbLine
 10
15.0
 20
0.0
 30
0.0
 11
0.0
 21
0.0
 31
0.0
  0
LINE
  5
510
330
504
100
AcDbEntity
  8
0
100
AcDbLine
 10
0.0
 20
10.0
 30
0.0
 11
0.0
 21
0.0
 31
0.0
  0
LINE
  5
511
330
504
100
AcDbEntity
  8
3-線
 62
     4
100
AcDbLine
 10
364.0
 20
254.5
 30
0.0
 11
410.0
 21
254.5
 31
0.0
  0
LINE
  5
512
330
504
100
AcDbEntity
  8
3-線
100
AcDbLine
 10
364.0
 20
287.0
 30
0.0
 11
364.0
 21
254.5
 31
0.0
  0
LINE
  5
513
330
504
100
AcDbEntity
  8
3-線
100
AcDbLine
 10
402.0
 20
254.5
 30
0.0
 11
402.0
 21
194.5
 31
0.0
  0
LINE
  5
514
330
504
100
AcDbEntity
  8
3-線
 62
     4
100
AcDbLine
 10
402.0
 20
194.5
 30
0.0
 11
410.0
 21
194.5
 31
0.0
  0
LINE
  5
515
330
504
100
AcDbEntity
  8
3-線
 62
     4
100
AcDbLine
 10
402.0
 20
200.5
 30
0.0
 11
410.0
 21
200.5
 31
0.0
  0
LINE
  5
516
330
504
100
AcDbEntity
  8
3-線
 62
     4
100
AcDbLine
 10
402.0
 20
206.5
 30
0.0
 11
410.0
 21
206.5
 31
0.0
  0
LINE
  5
517
330
504
100
AcDbEntity
  8
3-線
 62
     4
100
AcDbLine
 10
402.0
 20
212.5
 30
0.0
 11
410.0
 21
212.5
 31
0.0
  0
LINE
  5
518
330
504
100
AcDbEntity
  8
3-線
 62
     4
100
AcDbLine
 10
402.0
 20
218.5
 30
0.0
 11
410.0
 21
218.5
 31
0.0
  0
LINE
  5
519
330
504
100
AcDbEntity
  8
3-線
 62
     4
100
AcDbLine
 10
402.0
 20
224.5
 30
0.0
 11
410.0
 21
224.5
 31
0.0
  0
LINE
  5
51A
330
504
100
AcDbEntity
  8
3-線
 62
     4
100
AcDbLine
 10
402.0
 20
230.5
 30
0.0
 11
410.0
 21
230.5
 31
0.0
  0
LINE
  5
51B
330
504
100
AcDbEntity
  8
3-線
 62
     4
100
AcDbLine
 10
402.0
 20
236.5
 30
0.0
 11
410.0
 21
236.5
 31
0.0
  0
LINE
  5
51C
330
504
100
AcDbEntity
  8
3-線
 62
     4
100
AcDbLine
 10
402.0
 20
242.5
 30
0.0
 11
410.0
 21
242.5
 31
0.0
  0
LINE
  5
51D
330
504
100
AcDbEntity
  8
3-線
 62
     4
100
AcDbLine
 10
402.0
 20
248.5
 30
0.0
 11
410.0
 21
248.5
 31
0.0
  0
LINE
  5
51E
330
504
100
AcDbEntity
  8
2-線
100
AcDbLine
 10
370.0
 20
287.0
 30
0.0
 11
370.0
 21
254.5
 31
0.0
  0
LINE
  5
51F
330
504
100
AcDbEntity
  8
2-線
100
AcDbLine
 10
397.8
 20
287.0
 30
0.0
 11
397.8
 21
254.5
 31
0.0
  0
LINE
  5
520
330
504
100
AcDbEntity
  8
2-線
100
AcDbLine
 10
370.0
 20
280.05
 30
0.0
 11
410.0
 21
280.05
 31
0.0
  0
LINE
  5
521
330
504
100
AcDbEntity
  8
2-線
100
AcDbLine
 10
41.0
 20
287.0
 30
0.0
 11
41.0
 21
269.0
 31
0.0
  0
LINE
  5
522
330
504
100
AcDbEntity
  8
2-線
100
AcDbLine
 10
81.0
 20
287.0
 30
0.0
 11
81.0
 21
269.0
 31
0.0
  0
LINE
  5
523
330
504
100
AcDbEntity
  8
2-線
100
AcDbLine
 10
26.0
 20
269.0
 30
0.0
 11
136.0
 21
269.0
 31
0.0
  0
LINE
  5
524
330
504
100
AcDbEntity
  8
2-線
100
AcDbLine
 10
96.0
 20
287.0
 30
0.0
 11
96.0
 21
269.0
 31
0.0
  0
LINE
  5
525
330
504
100
AcDbEntity
  8
2-線
100
AcDbLine
 10
136.0
 20
287.0
 30
0.0
 11
136.0
 21
269.0
 31
0.0
  0
LINE
  5
526
330
504
100
AcDbEntity
  8
2-線
100
AcDbLine
 10
36.0
 20
22.0
 30
0.0
 11
36.0
 21
10.0
 31
0.0
  0
LINE
  5
527
330
504
100
AcDbEntity
  8
2-線
100
AcDbLine
 10
51.0
 20
22.0
 30
0.0
 11
51.0
 21
10.0
 31
0.0
  0
LINE
  5
528
330
504
100
AcDbEntity
  8
2-線
100
AcDbLine
 10
61.0
 20
22.0
 30
0.0
 11
61.0
 21
10.0
 31
0.0
  0
LINE
  5
529
330
504
100
AcDbEntity
  8
2-線
100
AcDbLine
 10
111.0
 20
22.0
 30
0.0
 11
111.0
 21
10.0
 31
0.0
  0
LINE
  5
52A
330
504
100
AcDbEntity
  8
2-線
100
AcDbLine
 10
26.0
 20
16.0
 30
0.0
 11
111.0
 21
16.0
 31
0.0
  0
LINE
  5
52B
330
504
100
AcDbEntity
  8
2-線
100
AcDbLine
 10
26.0
 20
22.0
 30
0.0
 11
111.0
 21
22.0
 31
0.0
  0
LINE
  5
52C
330
504
100
AcDbEntity
  8
2-線
100
AcDbLine
 10
207.0
 20
22.0
 30
0.0
 11
410.0
 21
22.0
 31
0.0
  0
LINE
  5
52D
330
504
100
AcDbEntity
  8
2-線
100
AcDbLine
 10
207.0
 20
34.0
 30
0.0
 11
410.0
 21
34.0
 31
0.0
  0
LINE
  5
52E
330
504
100
AcDbEntity
  8
2-線
100
AcDbLine
 10
247.0
 20
40.0
 30
0.0
 11
410.0
 21
40.0
 31
0.0
  0
LINE
  5
52F
330
504
100
AcDbEntity
  8
2-線
100
AcDbLine
 10
247.0
 20
46.0
 30
0.0
 11
410.0
 21
46.0
 31
0.0
  0
LINE
  5
530
330
504
100
AcDbEntity
  8
2-線
100
AcDbLine
 10
247.0
 20
76.0
 30
0.0
 11
247.0
 21
34.0
 31
0.0
  0
LINE
  5
531
330
504
100
AcDbEntity
  8
2-線
100
AcDbLine
 10
280.0
 20
34.0
 30
0.0
 11
280.0
 21
22.0
 31
0.0
  0
LINE
  5
532
330
504
100
AcDbEntity
  8
2-線
100
AcDbLine
 10
295.0
 20
34.0
 30
0.0
 11
295.0
 21
10.0
 31
0.0
  0
LINE
  5
533
330
504
100
AcDbEntity
  8
2-線
100
AcDbLine
 10
300.0
 20
34.0
 30
0.0
 11
300.0
 21
10.0
 31
0.0
  0
LINE
  5
534
330
504
100
AcDbEntity
  8
2-線
100
AcDbLine
 10
257.0
 20
76.0
 30
0.0
 11
257.0
 21
34.0
 31
0.0
  0
LINE
  5
535
330
504
100
AcDbEntity
  8
2-線
100
AcDbLine
 10
345.0
 20
34.0
 30
0.0
 11
345.0
 21
10.0
 31
0.0
  0
LINE
  5
536
330
504
100
AcDbEntity
  8
2-線
100
AcDbLine
 10
350.0
 20
34.0
 30
0.0
 11
350.0
 21
10.0
 31
0.0
  0
LINE
  5
537
330
504
100
AcDbEntity
  8
2-線
100
AcDbLine
 10
307.0
 20
76.0
 30
0.0
 11
307.0
 21
34.0
 31
0.0
  0
LINE
  5
538
330
504
100
AcDbEntity
  8
2-線
100
AcDbLine
 10
340.0
 20
76.00000000000003
 30
0.0
 11
340.0
 21
34.0
 31
0.0
  0
LINE
  5
539
330
504
100
AcDbEntity
  8
2-線
100
AcDbLine
 10
355.0
 20
76.0
 30
0.0
 11
355.0
 21
34.0
 31
0.0
  0
LINE
  5
53A
330
504
100
AcDbEntity
  8
2-線
100
AcDbLine
 10
375.0
 20
76.00000000000003
 30
0.0
 11
375.0
 21
34.0
 31
0.0
  0
TEXT
  5
53B
330
504
100
AcDbEntity
  8
2-線
100
AcDbText
 10
367.0
 20
285.59
 30
0.0
 40
2.799999999999998
  1
削り加工部一般公差
 41
1.199999999999999
  7
縦
 72
     4
 11
367.0
 21
270.75
 31
0.0
100
AcDbText
  0
TEXT
  5
53C
330
504
100
AcDbEntity
  8
2-線
100
AcDbText
 10
372.676
 20
284.1125000000001
 30
0.0
 40
2.299999999999998
  1
呼び寸法ノ区分
 41
1.199999999999999
 72
     4
 11
383.9
 21
285.2625000000001
 31
0.0
100
AcDbText
  0
TEXT
  5
53D
330
504
100
AcDbEntity
  8
2-線
100
AcDbText
 10
374.424
 20
280.6375
 30
0.0
 40
2.299999999999998
  1
単位　　ｍｍ
 41
1.199999999999999
 72
     4
 11
383.9
 21
281.7875
 31
0.0
100
AcDbText
  0
TEXT
  5
53E
330
504
100
AcDbEntity
  8
2-線
100
AcDbText
 10
401.2166666666665
 20
284.1125000000001
 30
0.0
 40
2.299999999999998
  1
JIS
 72
     4
 11
403.8999999999998
 21
285.2625000000001
 31
0.0
100
AcDbText
  0
TEXT
  5
53F
330
504
100
AcDbEntity
  8
2-線
100
AcDbText
 10
398.7633333333332
 20
280.6375
 30
0.0
 40
2.299999999999998
  1
（中級）
 72
     4
 11
403.8999999999998
 21
281.7875
 31
0.0
100
AcDbText
  0
TEXT
  5
540
330
504
100
AcDbEntity
  8
2-線
100
AcDbText
 10
370.5
 20
255.175
 30
0.0
 40
2.299999999999998
  1
１０００を超え２０００以下
 41
0.75
 11
370.5
 21
256.325
 31
0.0
100
AcDbText
 73
     2
  0
TEXT
  5
541
330
504
100
AcDbEntity
  8
2-線
100
AcDbText
 10
399.2079999999999
 20
255.175
 30
0.0
 40
2.299999999999998
  1
±１．２
 41
0.9
 72
     1
 11
403.8999999999998
 21
256.325
 31
0.0
100
AcDbText
 73
     2
  0
TEXT
  5
542
330
504
100
AcDbEntity
  8
2-線
100
AcDbText
 10
408.75
 20
250.125
 30
0.0
 40
5.5
  1
0
 50
90.0
 72
     4
 11
406.0
 21
251.5
 31
0.0
100
AcDbText
  0
TEXT
  5
543
330
504
100
AcDbEntity
  8
2-線
100
AcDbText
 10
408.75
 20
243.6666666666666
 30
0.0
 40
5.5
  1
9
 50
90.0
 72
     4
 11
406.0
 21
245.5
 31
0.0
100
AcDbText
  0
TEXT
  5
544
330
504
100
AcDbEntity
  8
2-線
100
AcDbText
 10
408.75
 20
237.6666666666666
 30
0.0
 40
5.5
  1
8
 50
90.0
 72
     4
 11
406.0
 21
239.5
 31
0.0
100
AcDbText
  0
TEXT
  5
545
330
504
100
AcDbEntity
  8
2-線
100
AcDbText
 10
408.75
 20
231.6666666666666
 30
0.0
 40
5.5
  1
7
 50
90.0
 72
     4
 11
406.0
 21
233.5
 31
0.0
100
AcDbText
  0
TEXT
  5
546
330
504
100
AcDbEntity
  8
2-線
100
AcDbText
 10
408.75
 20
225.6666666666667
 30
0.0
 40
5.5
  1
6
 50
90.0
 72
     4
 11
406.0
 21
227.5
 31
0.0
100
AcDbText
  0
TEXT
  5
547
330
504
100
AcDbEntity
  8
2-線
100
AcDbText
 10
408.75
 20
219.6666666666667
 30
0.0
 40
5.5
  1
5
 50
90.0
 72
     4
 11
406.0
 21
221.5
 31
0.0
100
AcDbText
  0
TEXT
  5
548
330
504
100
AcDbEntity
  8
2-線
100
AcDbText
 10
408.75
 20
213.6666666666667
 30
0.0
 40
5.5
  1
4
 50
90.0
 72
     4
 11
406.0
 21
215.5
 31
0.0
100
AcDbText
  0
TEXT
  5
549
330
504
100
AcDbEntity
  8
2-線
100
AcDbText
 10
408.75
 20
207.6666666666667
 30
0.0
 40
5.5
  1
3
 50
90.0
 72
     4
 11
406.0
 21
209.5
 31
0.0
100
AcDbText
  0
TEXT
  5
54A
330
504
100
AcDbEntity
  8
2-線
100
AcDbText
 10
408.75
 20
201.6666666666667
 30
0.0
 40
5.5
  1
2
 50
90.0
 72
     4
 11
406.0
 21
203.5
 31
0.0
100
AcDbText
  0
TEXT
  5
54B
330
504
100
AcDbEntity
  8
2-線
100
AcDbText
 10
408.75
 20
196.5833333333333
 30
0.0
 40
5.5
  1
1
 50
90.0
 72
     4
 11
406.0
 21
197.5
 31
0.0
100
AcDbText
  0
TEXT
  5
54C
330
504
100
AcDbEntity
  8
2-線
100
AcDbText
 10
31.63333333333333
 20
280.5000000000001
 30
0.0
 40
4.0
  1
熱
 72
     4
 11
33.5
 21
282.5000000000001
 31
0.0
100
AcDbText
  0
TEXT
  5
54D
330
504
100
AcDbEntity
  8
2-線
100
AcDbText
 10
28.63333333333333
 20
271.5000000000001
 30
0.0
 40
4.0
  1
処
 72
     4
 11
30.5
 21
273.5000000000001
 31
0.0
100
AcDbText
  0
TEXT
  5
54E
330
504
100
AcDbEntity
  8
2-線
100
AcDbText
 10
34.63333333333333
 20
271.6333333333334
 30
0.0
 40
4.0
  1
理
 72
     4
 11
36.5
 21
273.5000000000001
 31
0.0
100
AcDbText
  0
TEXT
  5
54F
330
504
100
AcDbEntity
  8
2-線
100
AcDbText
 10
83.63333333333335
 20
271.5000000000001
 30
0.0
 40
4.0
  1
処
 72
     4
 11
85.5
 21
273.5000000000001
 31
0.0
100
AcDbText
  0
TEXT
  5
550
330
504
100
AcDbEntity
  8
2-線
100
AcDbText
 10
89.63333333333334
 20
271.6333333333334
 30
0.0
 40
4.0
  1
理
 72
     4
 11
91.5
 21
273.5000000000001
 31
0.0
100
AcDbText
  0
TEXT
  5
551
330
504
100
AcDbEntity
  8
2-線
100
AcDbText
 10
83.63333333333335
 20
280.4999999999999
 30
0.0
 40
4.0
  1
表
 72
     4
 11
85.50000000000002
 21
282.4999999999999
 31
0.0
100
AcDbText
  0
TEXT
  5
552
330
504
100
AcDbEntity
  8
2-線
100
AcDbText
 10
89.63333333333338
 20
280.6333333333332
 30
0.0
 40
4.0
  1
面
 72
     4
 11
91.50000000000003
 21
282.4999999999999
 31
0.0
100
AcDbText
  0
TEXT
  5
553
330
504
100
AcDbEntity
  8
2-線
100
AcDbText
 10
27.8
 20
11.5
 30
0.0
 40
3.0
  1
符号
 72
     4
 11
31.0
 21
13.0
 31
0.0
100
AcDbText
  0
TEXT
  5
554
330
504
100
AcDbEntity
  8
2-線
100
AcDbText
 10
38.7
 20
11.5
 30
0.0
 40
3.0
  1
年月日
 72
     4
 11
43.5
 21
13.0
 31
0.0
100
AcDbText
  0
TEXT
  5
555
330
504
100
AcDbEntity
  8
2-線
100
AcDbText
 10
52.9
 20
11.5
 30
0.0
 40
3.0
  1
担当
 72
     4
 11
56.0
 21
13.0
 31
0.0
100
AcDbText
  0
TEXT
  5
556
330
504
100
AcDbEntity
  8
2-線
100
AcDbText
 10
73.79999999999999
 20
11.5
 30
0.0
 40
3.0
  1
改　正　記　事
 72
     4
 11
86.0
 21
13.0
 31
0.0
100
AcDbText
  0
TEXT
  5
557
330
504
100
AcDbEntity
  8
3-線
100
AcDbText
 10
213.4333333333334
 20
12.5
 30
0.0
 40
7.0
  1
協和工業株式会社
 41
1.149999999999999
 72
     4
 11
251.0
 21
16.0
 31
0.0
100
AcDbText
  0
TEXT
  5
558
330
504
100
AcDbEntity
  8
2-線
100
AcDbText
 10
248.08
 20
29.6
 30
0.0
 40
3.0
  1
Ｍ．Ｙ
 41
0.8
 72
     4
 11
252.0
 21
31.0
 31
0.0
100
AcDbText
  0
TEXT
  5
559
330
504
100
AcDbEntity
  8
2-線
100
AcDbText
 10
246.56
 20
23.6
 30
0.0
 40
3.0
  1
０１，０８，０１
 41
0.4
 72
     4
 11
252.0
 21
25.0
 31
0.0
100
AcDbText
  0
TEXT
  5
55A
330
504
100
AcDbEntity
  8
2-線
100
AcDbText
 10
265.8
 20
26.0
 30
0.0
 40
4.0
  1
1:1
 41
1.199999999999999
 72
     4
 11
269.0
 21
28.0
 31
0.0
100
AcDbText
  0
TEXT
  5
55B
330
504
100
AcDbEntity
  8
2-線
100
AcDbText
 10
282.5
 20
26.5
 30
0.0
 40
3.0
  1
三角法
 72
     4
 11
287.5
 21
28.0
 31
0.0
100
AcDbText
  0
TEXT
  5
55C
330
504
100
AcDbEntity
  8
2-線
100
AcDbText
 10
247.9
 20
35.6
 30
0.0
 40
3.0
  1
Ｎｏ．
 72
     4
 11
252.0
 21
37.0
 31
0.0
100
AcDbText
  0
LINE
  5
55D
330
504
100
AcDbEntity
  8
2-線
100
AcDbLine
 10
275.0
 20
34.0
 30
0.0
 11
275.0
 21
22.0
 31
0.0
  0
LINE
  5
55E
330
504
100
AcDbEntity
  8
2-線
100
AcDbLine
 10
263.0
 20
34.0
 30
0.0
 11
263.0
 21
22.0
 31
0.0
  0
LINE
  5
55F
330
504
100
AcDbEntity
  8
2-線
100
AcDbLine
 10
258.0
 20
34.0
 30
0.0
 11
258.0
 21
22.0
 31
0.0
  0
LINE
  5
560
330
504
100
AcDbEntity
  8
2-線
100
AcDbLine
 10
246.0
 20
34.0
 30
0.0
 11
246.0
 21
22.0
 31
0.0
  0
LINE
  5
561
330
504
100
AcDbEntity
  8
2-線
100
AcDbLine
 10
241.0
 20
34.0
 30
0.0
 11
241.0
 21
22.0
 31
0.0
  0
LINE
  5
562
330
504
100
AcDbEntity
  8
2-線
100
AcDbLine
 10
229.0
 20
34.0
 30
0.0
 11
229.0
 21
22.0
 31
0.0
  0
LINE
  5
563
330
504
100
AcDbEntity
  8
2-線
100
AcDbLine
 10
224.0
 20
34.0
 30
0.0
 11
224.0
 21
22.0
 31
0.0
  0
LINE
  5
564
330
504
100
AcDbEntity
  8
2-線
100
AcDbLine
 10
212.0
 20
34.0
 30
0.0
 11
212.0
 21
22.0
 31
0.0
  0
LINE
  5
565
330
504
100
AcDbEntity
  8
2-線
100
AcDbLine
 10
207.0
 20
34.0
 30
0.0
 11
207.0
 21
10.0
 31
0.0
  0
TEXT
  5
566
330
504
100
AcDbEntity
  8
2-線
100
AcDbText
 10
302.0
 20
26.25
 30
0.0
 40
3.5
  1
  トキコ（株）   殿
 11
302.0
 21
28.0
 31
0.0
100
AcDbText
 73
     2
  0
TEXT
  5
567
330
504
100
AcDbEntity
  8
2-線
100
AcDbText
 10
273.3
 20
35.5
 30
0.0
 40
3.0
  1
図　　　番
 72
     4
 11
282.0
 21
37.0
 31
0.0
100
AcDbText
  0
TEXT
  5
568
330
504
100
AcDbEntity
  8
2-線
100
AcDbText
 10
316.8
 20
35.5
 30
0.0
 40
3.0
  1
品　　名
 72
     4
 11
323.5
 21
37.0
 31
0.0
100
AcDbText
  0
TEXT
  5
569
330
504
100
AcDbEntity
  8
2-線
100
AcDbText
 10
344.3
 20
35.5
 30
0.0
 40
3.0
  1
個数
 72
     4
 11
347.5
 21
37.0
 31
0.0
100
AcDbText
  0
TEXT
  5
56A
330
504
100
AcDbEntity
  8
2-線
100
AcDbText
 10
360.0
 20
35.5
 30
0.0
 40
3.0
  1
材　質
 72
     4
 11
365.0
 21
37.0
 31
0.0
100
AcDbText
  0
TEXT
  5
56B
330
504
100
AcDbEntity
  8
2-線
100
AcDbText
 10
383.9
 20
35.5
 30
0.0
 40
3.0
  1
備　　　考
 72
     4
 11
392.5
 21
37.0
 31
0.0
100
AcDbText
  0
TEXT
  5
56C
330
504
100
AcDbEntity
  8
2-線
100
AcDbText
 10
352.0
 20
29.25
 30
0.0
 40
3.5
  1
 ８型　中間軸付き
 11
352.0
 21
31.0
 31
0.0
100
AcDbText
 73
     2
  0
TEXT
  5
56D
330
504
100
AcDbEntity
  8
2-線
100
AcDbText
 10
352.0
 20
23.25
 30
0.0
 40
3.5
  1
ユニバーサル･ジョイント
 11
352.0
 21
25.0
 31
0.0
100
AcDbText
 73
     2
  0
TEXT
  5
56E
330
504
100
AcDbEntity
  8
2-線
100
AcDbText
 10
352.0
 20
14.0
 30
0.0
 40
4.0
  1
ＳＰ－０８－００Ｃ－００
 41
0.85
 11
352.0
 21
16.0
 31
0.0
100
AcDbText
 73
     2
  0
TEXT
  5
56F
330
504
100
AcDbEntity
  8
2-線
100
AcDbText
 10
340.6
 20
41.5
 30
0.0
 40
3.0
  1
１ｓｅｔ
 72
     4
 11
347.5
 21
43.0
 31
0.0
100
AcDbText
  0
TEXT
  5
570
330
504
100
AcDbEntity
  8
2-線
100
AcDbText
 10
250.7
 20
41.5
 30
0.0
 40
3.0
  1
１
 72
     4
 11
252.0
 21
43.0
 31
0.0
100
AcDbText
  0
TEXT
  5
571
330
504
100
AcDbEntity
  8
2-線
100
AcDbText
 10
259.0
 20
41.5
 30
0.0
 40
3.0
  1
ＳＣ－０８－００Ｃ
 41
0.9
 11
259.0
 21
43.0
 31
0.0
100
AcDbText
 73
     2
  0
TEXT
  5
572
330
504
100
AcDbEntity
  8
2-線
100
AcDbText
 10
309.0
 20
41.5
 30
0.0
 40
3.0
  1
Ｕ．ジョイント
 41
0.9
 11
309.0
 21
43.0
 31
0.0
100
AcDbText
 73
     2
  0
TEXT
  5
573
330
504
100
AcDbEntity
  8
2-線
100
AcDbText
 10
357.0
 20
41.5
 30
0.0
 40
3.0
  1
ＳＣＭ４１５
 41
0.8
 11
357.0
 21
43.0
 31
0.0
100
AcDbText
 73
     2
  0
TEXT
  5
574
330
504
100
AcDbEntity
  8
2-線
100
AcDbText
 10
377.0
 20
41.5
 30
0.0
 40
3.0
  1
浸炭焼き入れ
 11
377.0
 21
43.0
 31
0.0
100
AcDbText
 73
     2
  0
TEXT
  5
575
330
504
100
AcDbEntity
  8
2-線
100
AcDbText
 10
277.5
 20
32.76
 30
0.0
 40
2.799999999999998
  1
投影法
 41
0.9
  7
縦
 72
     4
 11
277.5
 21
28.0
 31
0.0
100
AcDbText
  0
TEXT
  5
576
330
504
100
AcDbEntity
  8
2-線
100
AcDbText
 10
226.5
 20
32.76
 30
0.0
 40
2.799999999999998
  1
検　図
 41
0.9
  7
縦
 72
     4
 11
226.5
 21
28.0
 31
0.0
100
AcDbText
  0
TEXT
  5
577
330
504
100
AcDbEntity
  8
2-線
100
AcDbText
 10
243.5
 20
32.76
 30
0.0
 40
2.799999999999998
  1
製　図
 41
0.9
  7
縦
 72
     4
 11
243.5
 21
28.0
 31
0.0
100
AcDbText
  0
TEXT
  5
578
330
504
100
AcDbEntity
  8
2-線
100
AcDbText
 10
260.5
 20
32.85333333333333
 30
0.0
 40
2.799999999999998
  1
尺　度
 41
0.9
  7
縦
 72
     4
 11
260.5
 21
28.0
 31
0.0
100
AcDbText
  0
TEXT
  5
579
330
504
100
AcDbEntity
  8
2-線
100
AcDbText
 10
297.5
 20
32.76
 30
0.0
 40
2.799999999999998
  1
客　先
 41
0.9
  7
縦
 72
     4
 11
297.5
 21
28.0
 31
0.0
100
AcDbText
  0
TEXT
  5
57A
330
504
100
AcDbEntity
  8
2-線
100
AcDbText
 10
297.5
 20
20.76
 30
0.0
 40
2.799999999999998
  1
整　番
 41
0.9
  7
縦
 72
     4
 11
297.5
 21
16.0
 31
0.0
100
AcDbText
  0
TEXT
  5
57B
330
504
100
AcDbEntity
  8
2-線
100
AcDbText
 10
347.5
 20
32.76
 30
0.0
 40
2.799999999999998
  1
名　称
 41
0.9
  7
縦
 72
     4
 11
347.5
 21
28.0
 31
0.0
100
AcDbText
  0
TEXT
  5
57C
330
504
100
AcDbEntity
  8
2-線
100
AcDbText
 10
347.5
 20
20.85333333333333
 30
0.0
 40
2.799999999999998
  1
図　番
 41
0.9
  7
縦
 72
     4
 11
347.5
 21
16.0
 31
0.0
100
AcDbText
  0
TEXT
  5
57D
330
504
100
AcDbEntity
  8
2-線
100
AcDbText
 10
209.5
 20
32.76
 30
0.0
 40
2.799999999999998
  1
認　可
 41
0.9
  7
縦
 72
     4
 11
209.5
 21
28.0
 31
0.0
100
AcDbText
  0
LINE
  5
57E
330
504
100
AcDbEntity
  8
2-線
100
AcDbLine
 10
370.0
 20
283.525
 30
0.0
 11
410.0
 21
283.525
 31
0.0
  0
TEXT
  5
57F
330
504
100
AcDbEntity
  8
2-線
100
AcDbText
 10
399.2079999999999
 20
258.825
 30
0.0
 40
2.299999999999998
  1
±０．８
 41
0.9
 72
     1
 11
403.8999999999998
 21
259.975
 31
0.0
100
AcDbText
 73
     2
  0
TEXT
  5
580
330
504
100
AcDbEntity
  8
2-線
100
AcDbText
 10
399.2079999999999
 20
262.475
 30
0.0
 40
2.299999999999998
  1
±０．５
 41
0.9
 72
     1
 11
403.8999999999998
 21
263.6249999999999
 31
0.0
100
AcDbText
 73
     2
  0
TEXT
  5
581
330
504
100
AcDbEntity
  8
2-線
100
AcDbText
 10
399.2079999999999
 20
266.1249999999999
 30
0.0
 40
2.299999999999998
  1
±０．３
 41
0.9
 72
     1
 11
403.8999999999998
 21
267.2749999999999
 31
0.0
100
AcDbText
 73
     2
  0
TEXT
  5
582
330
504
100
AcDbEntity
  8
2-線
100
AcDbText
 10
399.2079999999999
 20
269.7749999999999
 30
0.0
 40
2.299999999999998
  1
±０．２
 41
0.9
 72
     1
 11
403.8999999999998
 21
270.9249999999999
 31
0.0
100
AcDbText
 73
     2
  0
TEXT
  5
583
330
504
100
AcDbEntity
  8
2-線
100
AcDbText
 10
399.4839999999999
 20
273.4249999999999
 30
0.0
 40
2.299999999999998
  1
±０．１
 41
0.9
 72
     1
 11
403.8999999999998
 21
274.5749999999999
 31
0.0
100
AcDbText
 73
     2
  0
TEXT
  5
584
330
504
100
AcDbEntity
  8
2-線
100
AcDbText
 10
399.4839999999999
 20
277.0749999999999
 30
0.0
 40
2.299999999999998
  1
±０．１
 41
0.9
 72
     1
 11
403.8999999999998
 21
278.2249999999999
 31
0.0
100
AcDbText
 73
     2
  0
TEXT
  5
585
330
504
100
AcDbEntity
  8
2-線
100
AcDbText
 10
370.5
 20
258.825
 30
0.0
 40
2.299999999999998
  1
　３１５を超え１０００以下
 41
0.75
 11
370.5
 21
259.975
 31
0.0
100
AcDbText
 73
     2
  0
TEXT
  5
586
330
504
100
AcDbEntity
  8
2-線
100
AcDbText
 10
370.5
 20
262.475
 30
0.0
 40
2.299999999999998
  1
　１２０を超え　３１５以下
 41
0.75
 11
370.5
 21
263.6249999999999
 31
0.0
100
AcDbText
 73
     2
  0
TEXT
  5
587
330
504
100
AcDbEntity
  8
2-線
100
AcDbText
 10
370.5
 20
266.1249999999999
 30
0.0
 40
2.299999999999998
  1
　　３０を超え　１２０以下
 41
0.75
 11
370.5
 21
267.2749999999999
 31
0.0
100
AcDbText
 73
     2
  0
TEXT
  5
588
330
504
100
AcDbEntity
  8
2-線
100
AcDbText
 10
370.5
 20
269.7749999999999
 30
0.0
 40
2.299999999999998
  1
　　　６を超え　　３０以下
 41
0.75
 11
370.5
 21
270.9249999999999
 31
0.0
100
AcDbText
 73
     2
  0
TEXT
  5
589
330
504
100
AcDbEntity
  8
2-線
100
AcDbText
 10
370.5
 20
273.4249999999999
 30
0.0
 40
2.299999999999998
  1
　　　３を超え　　　６以下
 41
0.75
 11
370.5
 21
274.5749999999999
 31
0.0
100
AcDbText
 73
     2
  0
TEXT
  5
58A
330
504
100
AcDbEntity
  8
2-線
100
AcDbText
 10
370.5
 20
277.0749999999999
 30
0.0
 40
2.299999999999998
  1
  ０．５を超え　　　３以下
 41
0.75
 11
370.5
 21
278.2249999999999
 31
0.0
100
AcDbText
 73
     2
  0
LINE
  5
58B
330
504
100
AcDbEntity
  8
2-線
100
AcDbLine
 10
247.0
 20
52.0
 30
0.0
 11
410.0
 21
52.0
 31
0.0
  0
TEXT
  5
58C
330
504
100
AcDbEntity
  8
2-線
100
AcDbText
 10
259.0
 20
47.5
 30
0.0
 40
3.0
  1
ＳＣ－０８－００Ｃ
 41
0.9
 11
259.0
 21
49.0
 31
0.0
100
AcDbText
 73
     2
  0
TEXT
  5
58D
330
504
100
AcDbEntity
  8
2-線
100
AcDbText
 10
250.6
 20
47.5
 30
0.0
 40
3.0
  1
２
 72
     4
 11
252.0
 21
49.0
 31
0.0
100
AcDbText
  0
TEXT
  5
58E
330
504
100
AcDbEntity
  8
2-線
100
AcDbText
 10
309.0
 20
47.5
 30
0.0
 40
3.0
  1
Ｕ．ジョイント
 41
0.9
 11
309.0
 21
49.0
 31
0.0
100
AcDbText
 73
     2
  0
TEXT
  5
58F
330
504
100
AcDbEntity
  8
2-線
100
AcDbText
 10
357.0
 20
47.5
 30
0.0
 40
3.0
  1
ＳＣＭ４１５
 41
0.8
 11
357.0
 21
49.0
 31
0.0
100
AcDbText
 73
     2
  0
TEXT
  5
590
330
504
100
AcDbEntity
  8
2-線
100
AcDbText
 10
340.6
 20
47.5
 30
0.0
 40
3.0
  1
１ｓｅｔ
 72
     4
 11
347.5
 21
49.0
 31
0.0
100
AcDbText
  0
TEXT
  5
591
330
504
100
AcDbEntity
  8
2-線
100
AcDbText
 10
377.0
 20
47.5
 30
0.0
 40
3.0
  1
浸炭焼き入れ
 11
377.0
 21
49.0
 31
0.0
100
AcDbText
 73
     2
  0
LINE
  5
592
330
504
100
AcDbEntity
  8
2-線
100
AcDbLine
 10
247.0
 20
58.0
 30
0.0
 11
410.0
 21
58.0
 31
0.0
  0
TEXT
  5
593
330
504
100
AcDbEntity
  8
2-線
100
AcDbText
 10
259.0
 20
53.5
 30
0.0
 40
3.0
  1
ＬＩＶ１０－００－０００
 41
0.9
 11
259.0
 21
55.0
 31
0.0
100
AcDbText
 73
     2
  0
TEXT
  5
594
330
504
100
AcDbEntity
  8
2-線
100
AcDbText
 10
250.6
 20
53.5
 30
0.0
 40
3.0
  1
３
 72
     4
 11
252.0
 21
55.0
 31
0.0
100
AcDbText
  0
TEXT
  5
595
330
504
100
AcDbEntity
  8
2-線
100
AcDbText
 10
309.0
 20
53.5
 30
0.0
 40
3.0
  1
スリーブ
 11
309.0
 21
55.0
 31
0.0
100
AcDbText
 73
     2
  0
TEXT
  5
596
330
504
100
AcDbEntity
  8
2-線
100
AcDbText
 10
357.0
 20
53.5
 30
0.0
 40
3.0
  1
Ｓ４５Ｃ
 41
0.8
 11
357.0
 21
55.0
 31
0.0
100
AcDbText
 73
     2
  0
TEXT
  5
597
330
504
100
AcDbEntity
  8
2-線
100
AcDbText
 10
346.2
 20
53.5
 30
0.0
 40
3.0
  1
１
 72
     4
 11
347.5
 21
55.0
 31
0.0
100
AcDbText
  0
LINE
  5
598
330
504
100
AcDbEntity
  8
2-線
100
AcDbLine
 10
247.0
 20
64.0
 30
0.0
 11
410.0
 21
64.0
 31
0.0
  0
TEXT
  5
599
330
504
100
AcDbEntity
  8
2-線
100
AcDbText
 10
259.0
 20
59.5
 30
0.0
 40
3.0
  1
ＬＩＳ１０－ＳＳ－００１
 41
0.9
 11
259.0
 21
61.0
 31
0.0
100
AcDbText
 73
     2
  0
TEXT
  5
59A
330
504
100
AcDbEntity
  8
2-線
100
AcDbText
 10
250.6
 20
59.5
 30
0.0
 40
3.0
  1
４
 72
     4
 11
252.0
 21
61.0
 31
0.0
100
AcDbText
  0
TEXT
  5
59B
330
504
100
AcDbEntity
  8
2-線
100
AcDbText
 10
309.0
 20
59.5
 30
0.0
 40
3.0
  1
スプライン軸
 41
0.9
 11
309.0
 21
61.0
 31
0.0
100
AcDbText
 73
     2
  0
TEXT
  5
59C
330
504
100
AcDbEntity
  8
2-線
100
AcDbText
 10
357.0
 20
59.5
 30
0.0
 40
3.0
  1
ＳＫ４
 41
0.8
 11
357.0
 21
61.0
 31
0.0
100
AcDbText
 73
     2
  0
TEXT
  5
59D
330
504
100
AcDbEntity
  8
2-線
100
AcDbText
 10
346.2
 20
59.5
 30
0.0
 40
3.0
  1
１
 72
     4
 11
347.5
 21
61.0
 31
0.0
100
AcDbText
  0
LINE
  5
59E
330
504
100
AcDbEntity
  8
2-線
100
AcDbLine
 10
247.0
 20
70.0
 30
0.0
 11
410.0
 21
70.0
 31
0.0
  0
TEXT
  5
59F
330
504
100
AcDbEntity
  8
2-線
100
AcDbText
 10
259.0
 20
65.5
 30
0.0
 40
3.0
  1
ＬＬＰ０８－００－０００
 41
0.9
 11
259.0
 21
67.0
 31
0.0
100
AcDbText
 73
     2
  0
TEXT
  5
5A0
330
504
100
AcDbEntity
  8
2-線
100
AcDbText
 10
250.5
 20
65.5
 30
0.0
 40
3.0
  1
５
 72
     4
 11
252.0
 21
67.0
 31
0.0
100
AcDbText
  0
TEXT
  5
5A1
330
504
100
AcDbEntity
  8
2-線
100
AcDbText
 10
309.0
 20
65.5
 30
0.0
 40
3.0
  1
連結軸
 41
0.9
 11
309.0
 21
67.0
 31
0.0
100
AcDbText
 73
     2
  0
TEXT
  5
5A2
330
504
100
AcDbEntity
  8
2-線
100
AcDbText
 10
357.0
 20
65.5
 30
0.0
 40
3.0
  1
ＳＫ４
 41
0.8
 11
357.0
 21
67.0
 31
0.0
100
AcDbText
 73
     2
  0
TEXT
  5
5A3
330
504
100
AcDbEntity
  8
2-線
100
AcDbText
 10
346.2
 20
65.5
 30
0.0
 40
3.0
  1
１
 72
     4
 11
347.5
 21
67.0
 31
0.0
100
AcDbText
  0
LINE
  5
5A4
330
504
100
AcDbEntity
  8
2-線
100
AcDbLine
 10
247.0
 20
76.0
 30
0.0
 11
410.0
 21
76.0
 31
0.0
  0
TEXT
  5
5A5
330
504
100
AcDbEntity
  8
2-線
100
AcDbText
 10
259.0
 20
71.5
 30
0.0
 40
3.0
  1
ＥＳＰ０５－１８
 41
0.9
 11
259.0
 21
73.0
 31
0.0
100
AcDbText
 73
     2
  0
TEXT
  5
5A6
330
504
100
AcDbEntity
  8
2-線
100
AcDbText
 10
250.6
 20
71.5
 30
0.0
 40
3.0
  1
６
 72
     4
 11
252.0
 21
73.0
 31
0.0
100
AcDbText
  0
TEXT
  5
5A7
330
504
100
AcDbEntity
  8
2-線
100
AcDbText
 10
309.0
 20
71.5
 30
0.0
 40
3.0
  1
平行ピン
 41
0.9
 11
309.0
 21
73.0
 31
0.0
100
AcDbText
 73
     2
  0
TEXT
  5
5A8
330
504
100
AcDbEntity
  8
2-線
100
AcDbText
 10
357.0
 20
71.5
 30
0.0
 40
3.0
  1
市販品
 41
0.8
 11
357.0
 21
73.0
 31
0.0
100
AcDbText
 73
     2
  0
TEXT
  5
5A9
330
504
100
AcDbEntity
  8
2-線
100
AcDbText
 10
346.2
 20
71.5
 30
0.0
 40
3.0
  1
１
 72
     4
 11
347.5
 21
73.0
 31
0.0
100
AcDbText
  0
ENDBLK
  5
5AB
330
504
100
AcDbEntity
  8
0
100
AcDbBlockEnd
  0
BLOCK
  5
28CC
330
28C2
100
AcDbEntity
  8
0
100
AcDbBlockBegin
  2
*D4
 70
     1
 10
0.0
 20
0.0
 30
0.0
  3
*D4
  1

  0
LINE
  5
2C6D
330
28C2
100
AcDbEntity
  8
1-線
 62
     0
370
    -2
100
AcDbLine
 10
200.9999995716827
 20
165.9
 30
0.0
 11
200.9999995716827
 21
161.4
 31
0.0
  0
LINE
  5
2C6E
330
28C2
100
AcDbEntity
  8
1-線
 62
     0
370
    -2
100
AcDbLine
 10
230.9999971627705
 20
165.9
 30
0.0
 11
230.9999971627705
 21
161.4
 31
0.0
  0
LINE
  5
2C6F
330
28C2
100
AcDbEntity
  8
1-線
 62
     0
370
    -2
100
AcDbLine
 10
203.4999995716827
 20
162.4
 30
0.0
 11
228.4999971627705
 21
162.4
 31
0.0
  0
INSERT
  5
2C70
330
28C2
100
AcDbEntity
  8
1-線
 62
     0
370
    -2
100
AcDbBlockReference
  2
_Open30
 10
200.9999995716827
 20
162.4
 30
0.0
 41
2.5
 42
2.5
 43
2.5
 50
180.0
  0
INSERT
  5
2C71
330
28C2
100
AcDbEntity
  8
1-線
 62
     0
370
    -2
100
AcDbBlockReference
  2
_Open30
 10
230.9999971627705
 20
162.4
 30
0.0
 41
2.5
 42
2.5
 43
2.5
  0
MTEXT
  5
2C72
330
28C2
100
AcDbEntity
  8
1-線
 62
     0
100
AcDbMText
 10
215.9999983672266
 20
164.9
 30
0.0
 40
3.0
 41
0.0
 71
     5
 72
     1
  1
15
 73
     1
 44
1.0
  0
POINT
  5
2C73
330
28C2
100
AcDbEntity
  8
Defpoints
 62
     0
100
AcDbPoint
 10
200.9999995716827
 20
165.9
 30
0.0
  0
POINT
  5
2C74
330
28C2
100
AcDbEntity
  8
Defpoints
 62
     0
100
AcDbPoint
 10
230.9999971627705
 20
165.9
 30
0.0
  0
POINT
  5
2C75
330
28C2
100
AcDbEntity
  8
Defpoints
 62
     0
100
AcDbPoint
 10
230.9999971627705
 20
162.4
 30
0.0
  0
ENDBLK
  5
28CD
330
28C2
100
AcDbEntity
  8
0
100
AcDbBlockEnd
  0
BLOCK
  5
28D8
330
28CE
100
AcDbEntity
  8
0
100
AcDbBlockBegin
  2
*D5
 70
     1
 10
0.0
 20
0.0
 30
0.0
  3
*D5
  1

  0
LINE
  5
2C64
330
28CE
100
AcDbEntity
  8
1-線
 62
     0
370
    -2
100
AcDbLine
 10
215.9999974691602
 20
186.5459139276616
 30
0.0
 11
215.9999974691602
 21
165.4
 31
0.0
  0
LINE
  5
2C65
330
28CE
100
AcDbEntity
  8
1-線
 62
     0
370
    -2
100
AcDbLine
 10
200.9999995716827
 20
169.9000042831676
 30
0.0
 11
200.9999995716827
 21
165.4
 31
0.0
  0
LINE
  5
2C66
330
28CE
100
AcDbEntity
  8
1-線
 62
     0
370
    -2
100
AcDbLine
 10
213.4999974691602
 20
166.4
 30
0.0
 11
203.4999995716827
 21
166.4
 31
0.0
  0
INSERT
  5
2C67
330
28CE
100
AcDbEntity
  8
1-線
 62
     0
370
    -2
100
AcDbBlockReference
  2
_Open30
 10
215.9999974691602
 20
166.4
 30
0.0
 41
2.5
 42
2.5
 43
2.5
  0
INSERT
  5
2C68
330
28CE
100
AcDbEntity
  8
1-線
 62
     0
370
    -2
100
AcDbBlockReference
  2
_Open30
 10
200.9999995716827
 20
166.4
 30
0.0
 41
2.5
 42
2.5
 43
2.5
 50
180.0
  0
MTEXT
  5
2C69
330
28CE
100
AcDbEntity
  8
1-線
 62
     0
100
AcDbMText
 10
208.4999985204214
 20
168.9
 30
0.0
 40
3.0
 41
0.0
 71
     5
 72
     1
  1
7.5
 73
     1
 44
1.0
  0
POINT
  5
2C6A
330
28CE
100
AcDbEntity
  8
Defpoints
 62
     0
100
AcDbPoint
 10
215.9999974691602
 20
186.5459139276616
 30
0.0
  0
POINT
  5
2C6B
330
28CE
100
AcDbEntity
  8
Defpoints
 62
     0
100
AcDbPoint
 10
200.9999995716827
 20
169.9000042831676
 30
0.0
  0
POINT
  5
2C6C
330
28CE
100
AcDbEntity
  8
Defpoints
 62
     0
100
AcDbPoint
 10
200.9999995716827
 20
166.4
 30
0.0
  0
ENDBLK
  5
28D9
330
28CE
100
AcDbEntity
  8
0
100
AcDbBlockEnd
  0
BLOCK
  5
28E4
330
28DA
100
AcDbEntity
  8
0
100
AcDbBlockBegin
  2
*D6
 70
     1
 10
0.0
 20
0.0
 30
0.0
  3
*D6
  1

  0
LINE
  5
2C76
330
28DA
100
AcDbEntity
  8
1-線
 62
     0
370
    -2
100
AcDbLine
 10
210.000000910173
 20
189.3999986376082
 30
0.0
 11
210.000000910173
 21
169.4000042831676
 31
0.0
  0
LINE
  5
2C77
330
28DA
100
AcDbEntity
  8
1-線
 62
     0
370
    -2
100
AcDbLine
 10
200.9999995716827
 20
173.8999993188039
 30
0.0
 11
200.9999995716827
 21
169.4000042831676
 31
0.0
  0
LINE
  5
2C78
330
28DA
100
AcDbEntity
  8
1-線
 62
     0
370
    -2
100
AcDbLine
 10
207.500000910173
 20
170.4000042831677
 30
0.0
 11
203.4999995716827
 21
170.4000042831677
 31
0.0
  0
INSERT
  5
2C79
330
28DA
100
AcDbEntity
  8
1-線
 62
     0
370
    -2
100
AcDbBlockReference
  2
_Open30
 10
210.000000910173
 20
170.4000042831677
 30
0.0
 41
2.5
 42
2.5
 43
2.5
  0
INSERT
  5
2C7A
330
28DA
100
AcDbEntity
  8
1-線
 62
     0
370
    -2
100
AcDbBlockReference
  2
_Open30
 10
200.9999995716827
 20
170.4000042831677
 30
0.0
 41
2.5
 42
2.5
 43
2.5
 50
180.0
  0
MTEXT
  5
2C7B
330
28DA
100
AcDbEntity
  8
1-線
 62
     0
100
AcDbMText
 10
205.5000002409278
 20
172.9000042831676
 30
0.0
 40
3.0
 41
0.0
 71
     5
 72
     1
  1
4.5
 73
     1
 44
1.0
  0
POINT
  5
2C7C
330
28DA
100
AcDbEntity
  8
Defpoints
 62
     0
100
AcDbPoint
 10
210.000000910173
 20
189.3999986376082
 30
0.0
  0
POINT
  5
2C7D
330
28DA
100
AcDbEntity
  8
Defpoints
 62
     0
100
AcDbPoint
 10
200.9999995716827
 20
173.8999993188039
 30
0.0
  0
POINT
  5
2C7E
330
28DA
100
AcDbEntity
  8
Defpoints
 62
     0
100
AcDbPoint
 10
200.9999995716827
 20
170.4000042831677
 30
0.0
  0
ENDBLK
  5
28E5
330
28DA
100
AcDbEntity
  8
0
100
AcDbBlockEnd
  0
BLOCK
  5
28F0
330
28E6
100
AcDbEntity
  8
0
100
AcDbBlockBegin
  2
*D7
 70
     1
 10
0.0
 20
0.0
 30
0.0
  3
*D7
  1

  0
LINE
  5
2C8A
330
28E6
100
AcDbEntity
  8
1-線
 62
     0
370
    -2
100
AcDbLine
 10
201.5000001918382
 20
199.4000031335013
 30
0.0
 11
185.9999987479969
 21
199.4000031335014
 31
0.0
  0
LINE
  5
2C8B
330
28E6
100
AcDbEntity
  8
1-線
 62
     0
370
    -2
100
AcDbLine
 10
201.4999992240056
 20
189.3999968664991
 30
0.0
 11
185.9999987479969
 21
189.3999968664991
 31
0.0
  0
LINE
  5
2C8C
330
28E6
100
AcDbEntity
  8
1-線
 62
     0
370
    -2
100
AcDbLine
 10
186.9999987479969
 20
196.9000031335014
 30
0.0
 11
186.9999987479969
 21
191.8999968664993
 31
0.0
  0
INSERT
  5
2C8D
330
28E6
100
AcDbEntity
  8
1-線
 62
     0
370
    -2
100
AcDbBlockReference
  2
_Open30
 10
186.9999987479969
 20
199.4000031335014
 30
0.0
 41
2.5
 42
2.5
 43
2.5
 50
90.0
  0
INSERT
  5
2C8E
330
28E6
100
AcDbEntity
  8
1-線
 62
     0
370
    -2
100
AcDbBlockReference
  2
_Open30
 10
186.9999987479969
 20
189.3999968664991
 30
0.0
 41
2.5
 42
2.5
 43
2.5
 50
270.0
  0
MTEXT
  5
2C8F
330
28E6
100
AcDbEntity
  8
1-線
 62
     0
100
AcDbMText
 10
184.4999987479969
 20
194.4
 30
0.0
 40
3.0
 41
0.0
 71
     5
 72
     1
  1
%%c5
 11
0.0000000000000001
 21
1.0
 31
0.0
 73
     1
 44
1.0
  0
POINT
  5
2C90
330
28E6
100
AcDbEntity
  8
Defpoints
 62
     0
100
AcDbPoint
 10
201.5000001918382
 20
199.4000031335013
 30
0.0
  0
POINT
  5
2C91
330
28E6
100
AcDbEntity
  8
Defpoints
 62
     0
100
AcDbPoint
 10
201.4999992240056
 20
189.3999968664991
 30
0.0
  0
POINT
  5
2C92
330
28E6
100
AcDbEntity
  8
Defpoints
 62
     0
100
AcDbPoint
 10
186.9999987479969
 20
189.3999968664991
 30
0.0
  0
ENDBLK
  5
28F1
330
28E6
100
AcDbEntity
  8
0
100
AcDbBlockEnd
  0
BLOCK
  5
28FC
330
28F2
100
AcDbEntity
  8
0
100
AcDbBlockBegin
  2
*D8
 70
     1
 10
0.0
 20
0.0
 30
0.0
  3
*D8
  1

  0
LINE
  5
2C7F
330
28F2
100
AcDbEntity
  8
1-線
 62
     0
370
    -2
100
AcDbLine
 10
201.5000002203364
 20
196.9000000000001
 30
0.0
 11
189.9999987479969
 21
196.9000000000001
 31
0.0
  0
LINE
  5
2C80
330
28F2
100
AcDbEntity
  8
1-線
 62
     0
370
    -2
100
AcDbLine
 10
201.4999991495435
 20
191.9
 30
0.0
 11
189.9999987479969
 21
191.9
 31
0.0
  0
LINE
  5
2C81
330
28F2
100
AcDbEntity
  8
1-線
 62
     0
370
    -2
100
AcDbLine
 10
190.9999987479969
 20
199.4
 30
0.0
 11
190.9999987479969
 21
201.9000000000001
 31
0.0
  0
LINE
  5
2C82
330
28F2
100
AcDbEntity
  8
1-線
 62
     0
370
    -2
100
AcDbLine
 10
190.9999987479969
 20
189.4
 30
0.0
 11
190.9999987479969
 21
186.9
 31
0.0
  0
LINE
  5
2C83
330
28F2
100
AcDbEntity
  8
1-線
 62
     0
370
    -2
100
AcDbLine
 10
190.9999987479969
 20
196.9000000000001
 30
0.0
 11
190.9999987479969
 21
191.9
 31
0.0
  0
INSERT
  5
2C84
330
28F2
100
AcDbEntity
  8
1-線
 62
     0
370
    -2
100
AcDbBlockReference
  2
_Open30
 10
190.9999987479969
 20
196.9000000000001
 30
0.0
 41
2.5
 42
2.5
 43
2.5
 50
270.0
  0
INSERT
  5
2C85
330
28F2
100
AcDbEntity
  8
1-線
 62
     0
370
    -2
100
AcDbBlockReference
  2
_Open30
 10
190.9999987479969
 20
191.9
 30
0.0
 41
2.5
 42
2.5
 43
2.5
 50
90.0
  0
MTEXT
  5
2C86
330
28F2
100
AcDbEntity
  8
1-線
 62
     0
100
AcDbMText
 10
188.4999987479968
 20
194.4
 30
0.0
 40
3.0
 41
0.0
 71
     5
 72
     1
  1
\A1;%%c2.5{\H0.7x;\SH8^ ;}
 11
0.0000000000000001
 21
1.0
 31
0.0
 73
     1
 44
1.0
  0
POINT
  5
2C87
330
28F2
100
AcDbEntity
  8
Defpoints
 62
     0
100
AcDbPoint
 10
201.5000002203364
 20
196.9000000000001
 30
0.0
  0
POINT
  5
2C88
330
28F2
100
AcDbEntity
  8
Defpoints
 62
     0
100
AcDbPoint
 10
201.4999991495435
 20
191.9
 30
0.0
  0
POINT
  5
2C89
330
28F2
100
AcDbEntity
  8
Defpoints
 62
     0
100
AcDbPoint
 10
190.9999987479969
 20
191.9
 30
0.0
  0
ENDBLK
  5
28FD
330
28F2
100
AcDbEntity
  8
0
100
AcDbBlockEnd
  0
BLOCK
  5
290A
330
28FE
100
AcDbEntity
  8
0
100
AcDbBlockBegin
  2
*D9
 70
     1
 10
0.0
 20
0.0
 30
0.0
  3
*D9
  1

  0
LINE
  5
2C93
330
28FE
100
AcDbEntity
  8
1-線
 62
     0
370
    -2
100
AcDbLine
 10
204.9999982331921
 20
189.3999978201732
 30
0.0
 11
204.9999982331921
 21
177.4
 31
0.0
  0
LINE
  5
2C94
330
28FE
100
AcDbEntity
  8
1-線
 62
     0
370
    -2
100
AcDbLine
 10
206.9999982331924
 20
190.3999987284347
 30
0.0
 11
206.9999982331924
 21
177.4
 31
0.0
  0
LINE
  5
2C95
330
28FE
100
AcDbEntity
  8
1-線
 62
     0
370
    -2
100
AcDbLine
 10
209.4999982331924
 20
178.4
 30
0.0
 11
211.9999982331924
 21
178.4
 31
0.0
  0
LINE
  5
2C96
330
28FE
100
AcDbEntity
  8
1-線
 62
     0
370
    -2
100
AcDbLine
 10
202.4999982331921
 20
178.4
 30
0.0
 11
189.4999982331921
 21
178.4
 31
0.0
  0
LINE
  5
2C97
330
28FE
100
AcDbEntity
  8
1-線
 62
     0
370
    -2
100
AcDbLine
 10
206.9999982331924
 20
178.4
 30
0.0
 11
204.9999982331921
 21
178.4
 31
0.0
  0
INSERT
  5
2C98
330
28FE
100
AcDbEntity
  8
1-線
 62
     0
370
    -2
100
AcDbBlockReference
  2
_Open30
 10
206.9999982331924
 20
178.4
 30
0.0
 41
2.5
 42
2.5
 43
2.5
 50
180.0
  0
INSERT
  5
2C99
330
28FE
100
AcDbEntity
  8
1-線
 62
     0
370
    -2
100
AcDbBlockReference
  2
_Open30
 10
204.9999982331921
 20
178.4
 30
0.0
 41
2.5
 42
2.5
 43
2.5
  0
MTEXT
  5
2C9A
330
28FE
100
AcDbEntity
  8
1-線
 62
     0
100
AcDbMText
 10
194.7499982331921
 20
181.8500000000001
 30
0.0
 40
3.0
 41
0.0
 71
     5
 72
     1
  1
\A1;%%C1{\H0.7x;\SH7^ h7;}
 73
     1
 44
1.0
  0
POINT
  5
2C9B
330
28FE
100
AcDbEntity
  8
Defpoints
 62
     0
100
AcDbPoint
 10
204.9999982331921
 20
189.3999978201732
 30
0.0
  0
POINT
  5
2C9C
330
28FE
100
AcDbEntity
  8
Defpoints
 62
     0
100
AcDbPoint
 10
206.9999982331924
 20
190.3999987284347
 30
0.0
  0
POINT
  5
2C9D
330
28FE
100
AcDbEntity
  8
Defpoints
 62
     0
100
AcDbPoint
 10
206.9999982331924
 20
178.4
 30
0.0
  0
ENDBLK
  5
290B
330
28FE
100
AcDbEntity
  8
0
100
AcDbBlockEnd
  0
BLOCK
  5
2916
330
290C
100
AcDbEntity
  8
0
100
AcDbBlockBegin
  2
*D10
 70
     1
 10
0.0
 20
0.0
 30
0.0
  3
*D10
  1

  0
LINE
  5
2C9E
330
290C
100
AcDbEntity
  8
1-線
 62
     0
370
    -2
100
AcDbLine
 10
205.999997469161
 20
177.9
 30
0.0
 11
205.999997469161
 21
173.3999993188039
 31
0.0
  0
LINE
  5
2C9F
330
290C
100
AcDbEntity
  8
1-線
 62
     0
370
    -2
100
AcDbLine
 10
200.9999995716827
 20
177.716959597864
 30
0.0
 11
200.9999995716827
 21
173.3999993188039
 31
0.0
  0
LINE
  5
2CA0
330
290C
100
AcDbEntity
  8
1-線
 62
     0
370
    -2
100
AcDbLine
 10
208.499997469161
 20
174.3999993188038
 30
0.0
 11
210.999997469161
 21
174.3999993188038
 31
0.0
  0
LINE
  5
2CA1
330
290C
100
AcDbEntity
  8
1-線
 62
     0
370
    -2
100
AcDbLine
 10
198.4999995716826
 20
174.3999993188038
 30
0.0
 11
187.9999995716826
 21
174.3999993188038
 31
0.0
  0
LINE
  5
2CA2
330
290C
100
AcDbEntity
  8
1-線
 62
     0
370
    -2
100
AcDbLine
 10
205.999997469161
 20
174.3999993188038
 30
0.0
 11
200.9999995716827
 21
174.3999993188038
 31
0.0
  0
INSERT
  5
2CA3
330
290C
100
AcDbEntity
  8
1-線
 62
     0
370
    -2
100
AcDbBlockReference
  2
_Open30
 10
205.999997469161
 20
174.3999993188038
 30
0.0
 41
2.5
 42
2.5
 43
2.5
 50
180.0
  0
INSERT
  5
2CA4
330
290C
100
AcDbEntity
  8
1-線
 62
     0
370
    -2
100
AcDbBlockReference
  2
_Open30
 10
200.9999995716827
 20
174.3999993188038
 30
0.0
 41
2.5
 42
2.5
 43
2.5
  0
MTEXT
  5
2CA5
330
290C
100
AcDbEntity
  8
1-線
 62
     0
100
AcDbMText
 10
191.9999995716827
 20
176.8999993188039
 30
0.0
 40
3.0
 41
0.0
 71
     5
 72
     1
  1
2.5
 73
     1
 44
1.0
  0
POINT
  5
2CA6
330
290C
100
AcDbEntity
  8
Defpoints
 62
     0
100
AcDbPoint
 10
205.999997469161
 20
177.9
 30
0.0
  0
POINT
  5
2CA7
330
290C
100
AcDbEntity
  8
Defpoints
 62
     0
100
AcDbPoint
 10
200.9999995716827
 20
177.716959597864
 30
0.0
  0
POINT
  5
2CA8
330
290C
100
AcDbEntity
  8
Defpoints
 62
     0
100
AcDbPoint
 10
200.9999995716827
 20
174.3999993188038
 30
0.0
  0
ENDBLK
  5
2917
330
290C
100
AcDbEntity
  8
0
100
AcDbBlockEnd
  0
BLOCK
  5
2922
330
2918
100
AcDbEntity
  8
0
100
AcDbBlockBegin
  2
*D11
 70
     1
 10
0.0
 20
0.0
 30
0.0
  3
*D11
  1

  0
LINE
  5
2CB2
330
2918
100
AcDbEntity
  8
1-線
 62
     0
370
    -2
100
AcDbLine
 10
230.9999971627705
 20
173.9
 30
0.0
 11
230.9999971627705
 21
169.4
 31
0.0
  0
LINE
  5
2CB3
330
2918
100
AcDbEntity
  8
1-線
 62
     0
370
    -2
100
AcDbLine
 10
221.9999995716837
 20
194.4
 30
0.0
 11
221.9999995716837
 21
169.4
 31
0.0
  0
LINE
  5
2CB4
330
2918
100
AcDbEntity
  8
1-線
 62
     0
370
    -2
100
AcDbLine
 10
228.4999971627705
 20
170.4
 30
0.0
 11
224.4999995716838
 21
170.4
 31
0.0
  0
INSERT
  5
2CB5
330
2918
100
AcDbEntity
  8
1-線
 62
     0
370
    -2
100
AcDbBlockReference
  2
_Open30
 10
230.9999971627705
 20
170.4
 30
0.0
 41
2.5
 42
2.5
 43
2.5
  0
INSERT
  5
2CB6
330
2918
100
AcDbEntity
  8
1-線
 62
     0
370
    -2
100
AcDbBlockReference
  2
_Open30
 10
221.9999995716837
 20
170.4
 30
0.0
 41
2.5
 42
2.5
 43
2.5
 50
180.0
  0
MTEXT
  5
2CB7
330
2918
100
AcDbEntity
  8
1-線
 62
     0
100
AcDbMText
 10
226.4999983672272
 20
172.9
 30
0.0
 40
3.0
 41
0.0
 71
     5
 72
     1
  1
4.5
 73
     1
 44
1.0
  0
POINT
  5
2CB8
330
2918
100
AcDbEntity
  8
Defpoints
 62
     0
100
AcDbPoint
 10
230.9999971627705
 20
173.9
 30
0.0
  0
POINT
  5
2CB9
330
2918
100
AcDbEntity
  8
Defpoints
 62
     0
100
AcDbPoint
 10
221.9999995716837
 20
194.4
 30
0.0
  0
POINT
  5
2CBA
330
2918
100
AcDbEntity
  8
Defpoints
 62
     0
100
AcDbPoint
 10
221.9999995716837
 20
170.4
 30
0.0
  0
ENDBLK
  5
2923
330
2918
100
AcDbEntity
  8
0
100
AcDbBlockEnd
  0
BLOCK
  5
292E
330
2924
100
AcDbEntity
  8
0
100
AcDbBlockBegin
  2
*D12
 70
     1
 10
0.0
 20
0.0
 30
0.0
  3
*D12
  1

  0
LINE
  5
2CA9
330
2924
100
AcDbEntity
  8
1-線
 62
     0
370
    -2
100
AcDbLine
 10
215.9999974691602
 20
186.5459139276616
 30
0.0
 11
215.9999974691602
 21
165.4
 31
0.0
  0
LINE
  5
2CAA
330
2924
100
AcDbEntity
  8
1-線
 62
     0
370
    -2
100
AcDbLine
 10
230.9999971627705
 20
169.9
 30
0.0
 11
230.9999971627705
 21
165.4
 31
0.0
  0
LINE
  5
2CAB
330
2924
100
AcDbEntity
  8
1-線
 62
     0
370
    -2
100
AcDbLine
 10
218.4999974691602
 20
166.4
 30
0.0
 11
228.4999971627705
 21
166.4
 31
0.0
  0
INSERT
  5
2CAC
330
2924
100
AcDbEntity
  8
1-線
 62
     0
370
    -2
100
AcDbBlockReference
  2
_Open30
 10
215.9999974691602
 20
166.4
 30
0.0
 41
2.5
 42
2.5
 43
2.5
 50
180.0
  0
INSERT
  5
2CAD
330
2924
100
AcDbEntity
  8
1-線
 62
     0
370
    -2
100
AcDbBlockReference
  2
_Open30
 10
230.9999971627705
 20
166.4
 30
0.0
 41
2.5
 42
2.5
 43
2.5
  0
MTEXT
  5
2CAE
330
2924
100
AcDbEntity
  8
1-線
 62
     0
100
AcDbMText
 10
223.4999973159654
 20
168.9
 30
0.0
 40
3.0
 41
0.0
 71
     5
 72
     1
  1
7.5
 73
     1
 44
1.0
  0
POINT
  5
2CAF
330
2924
100
AcDbEntity
  8
Defpoints
 62
     0
100
AcDbPoint
 10
215.9999974691602
 20
186.5459139276616
 30
0.0
  0
POINT
  5
2CB0
330
2924
100
AcDbEntity
  8
Defpoints
 62
     0
100
AcDbPoint
 10
230.9999971627705
 20
169.9
 30
0.0
  0
POINT
  5
2CB1
330
2924
100
AcDbEntity
  8
Defpoints
 62
     0
100
AcDbPoint
 10
230.9999971627705
 20
166.4
 30
0.0
  0
ENDBLK
  5
292F
330
2924
100
AcDbEntity
  8
0
100
AcDbBlockEnd
  0
BLOCK
  5
293A
330
2930
100
AcDbEntity
  8
0
100
AcDbBlockBegin
  2
*D13
 70
     1
 10
0.0
 20
0.0
 30
0.0
  3
*D13
  1

  0
LINE
  5
2CBB
330
2930
100
AcDbEntity
  8
1-線
 62
     0
370
    -2
100
AcDbLine
 10
230.5000009077827
 20
199.3999969764477
 30
0.0
 11
247.9999995716834
 21
199.3999969764477
 31
0.0
  0
LINE
  5
2CBC
330
2930
100
AcDbEntity
  8
1-線
 62
     0
370
    -2
100
AcDbLine
 10
230.4999979631032
 20
189.3999907094453
 30
0.0
 11
247.9999995716834
 21
189.3999907094453
 31
0.0
  0
LINE
  5
2CBD
330
2930
100
AcDbEntity
  8
1-線
 62
     0
370
    -2
100
AcDbLine
 10
246.9999995716834
 20
196.8999969764477
 30
0.0
 11
246.9999995716834
 21
191.8999907094454
 31
0.0
  0
INSERT
  5
2CBE
330
2930
100
AcDbEntity
  8
1-線
 62
     0
370
    -2
100
AcDbBlockReference
  2
_Open30
 10
246.9999995716834
 20
199.3999969764477
 30
0.0
 41
2.5
 42
2.5
 43
2.5
 50
90.0
  0
INSERT
  5
2CBF
330
2930
100
AcDbEntity
  8
1-線
 62
     0
370
    -2
100
AcDbBlockReference
  2
_Open30
 10
246.9999995716834
 20
189.3999907094453
 30
0.0
 41
2.5
 42
2.5
 43
2.5
 50
270.0
  0
MTEXT
  5
2CC0
330
2930
100
AcDbEntity
  8
1-線
 62
     0
100
AcDbMText
 10
244.4999995716834
 20
194.4
 30
0.0
 40
3.0
 41
0.0
 71
     5
 72
     1
  1
%%c5
 11
0.0000000000000001
 21
1.0
 31
0.0
 73
     1
 44
1.0
  0
POINT
  5
2CC1
330
2930
100
AcDbEntity
  8
Defpoints
 62
     0
100
AcDbPoint
 10
230.5000009077827
 20
199.3999969764477
 30
0.0
  0
POINT
  5
2CC2
330
2930
100
AcDbEntity
  8
Defpoints
 62
     0
100
AcDbPoint
 10
230.4999979631032
 20
189.3999907094453
 30
0.0
  0
POINT
  5
2CC3
330
2930
100
AcDbEntity
  8
Defpoints
 62
     0
100
AcDbPoint
 10
246.9999995716834
 20
189.3999907094453
 30
0.0
  0
ENDBLK
  5
293B
330
2930
100
AcDbEntity
  8
0
100
AcDbBlockEnd
  0
BLOCK
  5
2946
330
293C
100
AcDbEntity
  8
0
100
AcDbBlockBegin
  2
*D14
 70
     1
 10
0.0
 20
0.0
 30
0.0
  3
*D14
  1

  0
LINE
  5
2CC4
330
293C
100
AcDbEntity
  8
1-線
 62
     0
370
    -2
100
AcDbLine
 10
242.5894682639395
 20
196.8999938429463
 30
0.0
 11
243.9753608443289
 21
196.8999938429463
 31
0.0
  0
LINE
  5
2CC5
330
293C
100
AcDbEntity
  8
1-線
 62
     0
370
    -2
100
AcDbLine
 10
230.4999978316452
 20
191.8999938429468
 30
0.0
 11
243.9753608443288
 21
191.8999938429468
 31
0.0
  0
LINE
  5
2CC6
330
293C
100
AcDbEntity
  8
1-線
 62
     0
370
    -2
100
AcDbLine
 10
242.9753608443288
 20
199.3999938429463
 30
0.0
 11
242.9753608443288
 21
201.8999938429463
 31
0.0
  0
LINE
  5
2CC7
330
293C
100
AcDbEntity
  8
1-線
 62
     0
370
    -2
100
AcDbLine
 10
242.9753608443288
 20
189.3999938429468
 30
0.0
 11
242.9753608443288
 21
186.8999938429468
 31
0.0
  0
LINE
  5
2CC8
330
293C
100
AcDbEntity
  8
1-線
 62
     0
370
    -2
100
AcDbLine
 10
242.9753608443288
 20
196.8999938429463
 30
0.0
 11
242.9753608443288
 21
191.8999938429468
 31
0.0
  0
INSERT
  5
2CC9
330
293C
100
AcDbEntity
  8
1-線
 62
     0
370
    -2
100
AcDbBlockReference
  2
_Open30
 10
242.9753608443288
 20
196.8999938429463
 30
0.0
 41
2.5
 42
2.5
 43
2.5
 50
270.0
  0
INSERT
  5
2CCA
330
293C
100
AcDbEntity
  8
1-線
 62
     0
370
    -2
100
AcDbBlockReference
  2
_Open30
 10
242.9753608443288
 20
191.8999938429468
 30
0.0
 41
2.5
 42
2.5
 43
2.5
 50
90.0
  0
MTEXT
  5
2CCB
330
293C
100
AcDbEntity
  8
1-線
 62
     0
100
AcDbMText
 10
240.4753608443288
 20
194.3999938429466
 30
0.0
 40
3.0
 41
0.0
 71
     5
 72
     1
  1
\A1;%%c2.5{\H0.7x;\SH8^ ;}
 11
0.0000000000000001
 21
1.0
 31
0.0
 73
     1
 44
1.0
  0
POINT
  5
2CCC
330
293C
100
AcDbEntity
  8
Defpoints
 62
     0
100
AcDbPoint
 10
242.5894682639395
 20
196.8999938429463
 30
0.0
  0
POINT
  5
2CCD
330
293C
100
AcDbEntity
  8
Defpoints
 62
     0
100
AcDbPoint
 10
230.4999978316452
 20
191.8999938429468
 30
0.0
  0
POINT
  5
2CCE
330
293C
100
AcDbEntity
  8
Defpoints
 62
     0
100
AcDbPoint
 10
242.9753608443288
 20
191.8999938429468
 30
0.0
  0
ENDBLK
  5
2947
330
293C
100
AcDbEntity
  8
0
100
AcDbBlockEnd
  0
BLOCK
  5
2952
330
2948
100
AcDbEntity
  8
0
100
AcDbBlockBegin
  2
*D15
 70
     1
 10
0.0
 20
0.0
 30
0.0
  3
*D15
  1

  0
LINE
  5
2CCF
330
2948
100
AcDbEntity
  8
1-線
 62
     0
370
    -2
100
AcDbLine
 10
225.9999974691608
 20
186.5459139276616
 30
0.0
 11
225.9999974691608
 21
173.4
 31
0.0
  0
LINE
  5
2CD0
330
2948
100
AcDbEntity
  8
1-線
 62
     0
370
    -2
100
AcDbLine
 10
230.9999971627705
 20
189.9006844762957
 30
0.0
 11
230.9999971627705
 21
173.4
 31
0.0
  0
LINE
  5
2CD1
330
2948
100
AcDbEntity
  8
1-線
 62
     0
370
    -2
100
AcDbLine
 10
223.4999974691608
 20
174.4
 30
0.0
 11
220.9999974691608
 21
174.4
 31
0.0
  0
LINE
  5
2CD2
330
2948
100
AcDbEntity
  8
1-線
 62
     0
370
    -2
100
AcDbLine
 10
233.4999971627705
 20
174.4
 30
0.0
 11
243.9999971627705
 21
174.4
 31
0.0
  0
LINE
  5
2CD3
330
2948
100
AcDbEntity
  8
1-線
 62
     0
370
    -2
100
AcDbLine
 10
225.9999974691608
 20
174.4
 30
0.0
 11
230.9999971627705
 21
174.4
 31
0.0
  0
INSERT
  5
2CD4
330
2948
100
AcDbEntity
  8
1-線
 62
     0
370
    -2
100
AcDbBlockReference
  2
_Open30
 10
225.9999974691608
 20
174.4
 30
0.0
 41
2.5
 42
2.5
 43
2.5
  0
INSERT
  5
2CD5
330
2948
100
AcDbEntity
  8
1-線
 62
     0
370
    -2
100
AcDbBlockReference
  2
_Open30
 10
230.9999971627705
 20
174.4
 30
0.0
 41
2.5
 42
2.5
 43
2.5
 50
180.0
  0
MTEXT
  5
2CD6
330
2948
100
AcDbEntity
  8
1-線
 62
     0
100
AcDbMText
 10
239.9999971627705
 20
176.9
 30
0.0
 40
3.0
 41
0.0
 71
     5
 72
     1
  1
2.5
 73
     1
 44
1.0
  0
POINT
  5
2CD7
330
2948
100
AcDbEntity
  8
Defpoints
 62
     0
100
AcDbPoint
 10
225.9999974691608
 20
186.5459139276616
 30
0.0
  0
POINT
  5
2CD8
330
2948
100
AcDbEntity
  8
Defpoints
 62
     0
100
AcDbPoint
 10
230.9999971627705
 20
189.9006844762957
 30
0.0
  0
POINT
  5
2CD9
330
2948
100
AcDbEntity
  8
Defpoints
 62
     0
100
AcDbPoint
 10
230.9999971627705
 20
174.4
 30
0.0
  0
ENDBLK
  5
2953
330
2948
100
AcDbEntity
  8
0
100
AcDbBlockEnd
  0
BLOCK
  5
2CE7
330
2CDB
100
AcDbEntity
  8
0
100
AcDbBlockBegin
  2
*D16
 70
     1
 10
0.0
 20
0.0
 30
0.0
  3
*D16
  1

  0
LINE
  5
2CDC
330
2CDB
100
AcDbEntity
  8
6-線
 62
     0
370
    -2
100
AcDbLine
 10
201.5000002203366
 20
196.8999991969046
 30
0.0
 11
181.2620879680285
 21
196.8999991969046
 31
0.0
  0
LINE
  5
2CDD
330
2CDB
100
AcDbEntity
  8
6-線
 62
     0
370
    -2
100
AcDbLine
 10
201.5000015588263
 20
191.9
 30
0.0
 11
181.2620879680284
 21
191.9
 31
0.0
  0
LINE
  5
2CDE
330
2CDB
100
AcDbEntity
  8
6-線
 62
     0
370
    -2
100
AcDbLine
 10
182.2620879680284
 20
199.3999991969046
 30
0.0
 11
182.2620879680284
 21
201.8999991969046
 31
0.0
  0
LINE
  5
2CDF
330
2CDB
100
AcDbEntity
  8
6-線
 62
     0
370
    -2
100
AcDbLine
 10
182.2620879680284
 20
189.4
 30
0.0
 11
182.2620879680284
 21
186.9
 31
0.0
  0
LINE
  5
2CE0
330
2CDB
100
AcDbEntity
  8
6-線
 62
     0
370
    -2
100
AcDbLine
 10
182.2620879680284
 20
196.8999991969046
 30
0.0
 11
182.2620879680284
 21
191.9
 31
0.0
  0
INSERT
  5
2CE1
330
2CDB
100
AcDbEntity
  8
6-線
 62
     0
370
    -2
100
AcDbBlockReference
  2
_Open30
 10
182.2620879680284
 20
196.8999991969046
 30
0.0
 41
2.5
 42
2.5
 43
2.5
 50
270.0
  0
INSERT
  5
2CE2
330
2CDB
100
AcDbEntity
  8
6-線
 62
     0
370
    -2
100
AcDbBlockReference
  2
_Open30
 10
182.2620879680284
 20
191.9
 30
0.0
 41
2.5
 42
2.5
 43
2.5
 50
90.0
  0
MTEXT
  5
2CE3
330
2CDB
100
AcDbEntity
  8
6-線
 62
     0
100
AcDbMText
 10
179.7620879680284
 20
194.3999995984523
 30
0.0
 40
3.0
 41
0.0
 71
     5
 72
     1
  1
5
 11
0.0000000000000001
 21
1.0
 31
0.0
 73
     1
 44
1.0
  0
POINT
  5
2CE4
330
2CDB
100
AcDbEntity
  8
Defpoints
 62
     0
100
AcDbPoint
 10
201.5000002203366
 20
196.8999991969046
 30
0.0
  0
POINT
  5
2CE5
330
2CDB
100
AcDbEntity
  8
Defpoints
 62
     0
100
AcDbPoint
 10
201.5000015588263
 20
191.9
 30
0.0
  0
POINT
  5
2CE6
330
2CDB
100
AcDbEntity
  8
Defpoints
 62
     0
100
AcDbPoint
 10
182.2620879680284
 20
191.9
 30
0.0
  0
ENDBLK
  5
2CE8
330
2CDB
100
AcDbEntity
  8
0
100
AcDbBlockEnd
  0
BLOCK
  5
2D05
330
2CFB
100
AcDbEntity
  8
0
100
AcDbBlockBegin
  2
*D17
 70
     1
 10
0.0
 20
0.0
 30
0.0
  3
*D17
  1

  0
LINE
  5
2CFC
330
2CFB
100
AcDbEntity
  8
6-線
 62
     0
370
    -2
100
AcDbLine
 10
183.999992376965
 20
202.3933296735973
 30
0.0
 11
183.999992376965
 21
205.2185276513495
 31
0.0
  0
LINE
  5
2CFD
330
2CFB
100
AcDbEntity
  8
6-線
 62
     0
370
    -2
100
AcDbLine
 10
216.0000017114717
 20
202.3932934339685
 30
0.0
 11
216.0000017114717
 21
205.2185276513495
 31
0.0
  0
LINE
  5
2CFE
330
2CFB
100
AcDbEntity
  8
6-線
 62
     0
370
    -2
100
AcDbLine
 10
186.499992376965
 20
204.2185276513495
 30
0.0
 11
213.5000017114716
 21
204.2185276513495
 31
0.0
  0
INSERT
  5
2CFF
330
2CFB
100
AcDbEntity
  8
6-線
 62
     0
370
    -2
100
AcDbBlockReference
  2
_Open30
 10
183.999992376965
 20
204.2185276513495
 30
0.0
 41
2.5
 42
2.5
 43
2.5
 50
180.0
  0
INSERT
  5
2D00
330
2CFB
100
AcDbEntity
  8
6-線
 62
     0
370
    -2
100
AcDbBlockReference
  2
_Open30
 10
216.0000017114717
 20
204.2185276513495
 30
0.0
 41
2.5
 42
2.5
 43
2.5
  0
MTEXT
  5
2D01
330
2CFB
100
AcDbEntity
  8
6-線
 62
     0
100
AcDbMText
 10
199.9999970442183
 20
206.7185276513495
 30
0.0
 40
3.0
 41
0.0
 71
     5
 72
     1
  1
32
 73
     1
 44
1.0
  0
POINT
  5
2D02
330
2CFB
100
AcDbEntity
  8
Defpoints
 62
     0
100
AcDbPoint
 10
183.999992376965
 20
202.3933296735973
 30
0.0
  0
POINT
  5
2D03
330
2CFB
100
AcDbEntity
  8
Defpoints
 62
     0
100
AcDbPoint
 10
216.0000017114717
 20
202.3932934339685
 30
0.0
  0
POINT
  5
2D04
330
2CFB
100
AcDbEntity
  8
Defpoints
 62
     0
100
AcDbPoint
 10
216.0000017114717
 20
204.2185276513495
 30
0.0
  0
ENDBLK
  5
2D06
330
2CFB
100
AcDbEntity
  8
0
100
AcDbBlockEnd
  0
BLOCK
  5
2D12
330
2D08
100
AcDbEntity
  8
0
100
AcDbBlockBegin
  2
*D18
 70
     1
 10
0.0
 20
0.0
 30
0.0
  3
*D18
  1

  0
LINE
  5
2D09
330
2D08
100
AcDbEntity
  8
6-線
 62
     0
370
    -2
100
AcDbLine
 10
216.0000017114717
 20
202.3932934339685
 30
0.0
 11
216.0000017114717
 21
205.8057816055016
 31
0.0
  0
LINE
  5
2D0A
330
2D08
100
AcDbEntity
  8
6-線
 62
     0
370
    -2
100
AcDbLine
 10
247.9999923769649
 20
202.3933296735973
 30
0.0
 11
247.9999923769649
 21
205.8057816055016
 31
0.0
  0
LINE
  5
2D0B
330
2D08
100
AcDbEntity
  8
6-線
 62
     0
370
    -2
100
AcDbLine
 10
218.5000017114717
 20
204.8057816055016
 30
0.0
 11
245.499992376965
 21
204.8057816055016
 31
0.0
  0
INSERT
  5
2D0C
330
2D08
100
AcDbEntity
  8
6-線
 62
     0
370
    -2
100
AcDbBlockReference
  2
_Open30
 10
216.0000017114717
 20
204.8057816055016
 30
0.0
 41
2.5
 42
2.5
 43
2.5
 50
180.0
  0
INSERT
  5
2D0D
330
2D08
100
AcDbEntity
  8
6-線
 62
     0
370
    -2
100
AcDbBlockReference
  2
_Open30
 10
247.9999923769649
 20
204.8057816055016
 30
0.0
 41
2.5
 42
2.5
 43
2.5
  0
MTEXT
  5
2D0E
330
2D08
100
AcDbEntity
  8
6-線
 62
     0
100
AcDbMText
 10
231.9999970442183
 20
207.3057816055016
 30
0.0
 40
3.0
 41
0.0
 71
     5
 72
     1
  1
32
 73
     1
 44
1.0
  0
POINT
  5
2D0F
330
2D08
100
AcDbEntity
  8
Defpoints
 62
     0
100
AcDbPoint
 10
216.0000017114717
 20
202.3932934339685
 30
0.0
  0
POINT
  5
2D10
330
2D08
100
AcDbEntity
  8
Defpoints
 62
     0
100
AcDbPoint
 10
247.9999923769649
 20
202.3933296735973
 30
0.0
  0
POINT
  5
2D11
330
2D08
100
AcDbEntity
  8
Defpoints
 62
     0
100
AcDbPoint
 10
247.9999923769649
 20
204.8057816055016
 30
0.0
  0
ENDBLK
  5
2D13
330
2D08
100
AcDbEntity
  8
0
100
AcDbBlockEnd
  0
ENDSEC
  0
SECTION
  2
ENTITIES
  0
MTEXT
  5
E68
330
1F
100
AcDbEntity
  8
1-線
100
AcDbMText
 10
312.9841260005437
 20
164.7217985525683
 30
0.0
 40
3.0
 41
15.0
 71
     7
 72
     1
  1

 73
     1
 44
1.0
  0
CIRCLE
  5
2831
330
1F
100
AcDbEntity
  8
3-線
100
AcDbCircle
 10
184.0
 20
194.4
 30
0.0
 40
5.00000313350132
  0
CIRCLE
  5
2832
330
1F
100
AcDbEntity
  8
3-線
100
AcDbCircle
 10
184.0
 20
194.4
 30
0.0
 40
2.50000000000099
  0
CIRCLE
  5
2833
330
1F
100
AcDbEntity
  8
3-線
100
AcDbCircle
 10
184.0
 20
194.4
 30
0.0
 40
2.999999576150978
  0
LINE
  5
283D
330
1F
100
AcDbEntity
  8
3-線
100
AcDbLine
 10
210.000000910173
 20
199.4000013623919
 30
0.0
 11
209.9999982331924
 21
189.3999986376082
 31
0.0
  0
LINE
  5
283E
330
1F
100
AcDbEntity
  8
3-線
100
AcDbLine
 10
201.000000055599
 20
198.9000031643896
 30
0.0
 11
200.9999995716827
 21
189.9006925072347
 31
0.0
  0
LINE
  5
2842
330
1F
100
AcDbEntity
  8
3-線
100
AcDbLine
 10
201.5000015588263
 20
191.9
 30
0.0
 11
201.5000002203364
 21
196.9000000000001
 31
0.0
  0
LINE
  5
2847
330
1F
100
AcDbEntity
  8
3-線
100
AcDbLine
 10
201.4999991495435
 20
191.9
 30
0.0
 11
205.3999989024377
 21
191.9
 31
0.0
  0
LINE
  5
2848
330
1F
100
AcDbEntity
  8
3-線
100
AcDbLine
 10
201.4999992240056
 20
189.3999968664991
 30
0.0
 11
205.4999982331921
 21
189.3999979564124
 31
0.0
  0
ARC
  5
2849
330
1F
100
AcDbEntity
  8
3-線
100
AcDbCircle
 10
201.4999990877664
 20
189.8999968664992
 30
0.0
 40
0.5
100
AcDbArc
 50
179.92028541788
 51
270.0000156118611
  0
LINE
  5
284A
330
1F
100
AcDbEntity
  8
3-線
100
AcDbLine
 10
200.9999992833924
 20
191.4
 30
0.0
 11
201.4999991495435
 21
191.9
 31
0.0
  0
LINE
  5
284B
330
1F
100
AcDbEntity
  8
3-線
100
AcDbLine
 10
206.5999989024377
 20
191.9
 30
0.0
 11
209.9999999732296
 21
191.9
 31
0.0
  0
LINE
  5
284C
330
1F
100
AcDbEntity
  8
3-線
100
AcDbLine
 10
206.4999982331924
 20
189.3999986376082
 30
0.0
 11
209.9999982331924
 21
189.3999986376082
 31
0.0
  0
LINE
  5
285A
330
1F
100
AcDbEntity
  8
3-線
100
AcDbLine
 10
201.5000001918382
 20
199.4000031335013
 30
0.0
 11
205.4999982331921
 21
199.4000020435883
 31
0.0
  0
LINE
  5
285B
330
1F
100
AcDbEntity
  8
3-線
100
AcDbLine
 10
201.4999994172414
 20
196.9000000000001
 30
0.0
 11
205.0000002409277
 21
196.9
 31
0.0
  0
LINE
  5
285C
330
1F
100
AcDbEntity
  8
3-線
100
AcDbLine
 10
200.9999995510904
 20
197.4
 30
0.0
 11
201.4999994172414
 21
196.9000000000001
 31
0.0
  0
ARC
  5
285D
330
1F
100
AcDbEntity
  8
3-線
100
AcDbCircle
 10
201.500000055599
 20
198.9000031335013
 30
0.0
 40
0.5
100
AcDbArc
 50
89.99998438813916
 51
179.9999964604662
  0
LINE
  5
285E
330
1F
100
AcDbEntity
  8
3-線
100
AcDbLine
 10
206.4999982331921
 20
199.4000023160669
 30
0.0
 11
210.0000009101729
 21
199.4000013623919
 31
0.0
  0
LINE
  5
285F
330
1F
100
AcDbEntity
  8
3-線
100
AcDbLine
 10
207.0000002409277
 20
196.9
 30
0.0
 11
210.0000002409276
 21
196.9000000000001
 31
0.0
  0
LINE
  5
2880
330
1F
100
AcDbEntity
  8
3-線
100
AcDbLine
 10
226.3999996281546
 20
199.0509299976836
 30
0.0
 11
226.4000012119357
 21
189.7509299685284
 31
0.0
  0
LINE
  5
2882
330
1F
100
AcDbEntity
  8
3-線
100
AcDbLine
 10
225.6000002367664
 20
199.04999994646
 30
0.0
 11
225.6000015144201
 21
189.7489891505213
 31
0.0
  0
LINE
  5
2885
330
1F
100
AcDbEntity
  8
1-破線
100
AcDbLine
 10
230.5000002409272
 20
196.8999938429463
 30
0.0
 11
230.4999978316452
 21
191.8999938429468
 31
0.0
  0
LINE
  5
288A
330
1F
100
AcDbEntity
  8
3-線
100
AcDbLine
 10
225.499996796227
 20
189.399992325195
 30
0.0
 11
213.0999982331938
 21
189.4000023428356
 31
0.0
  0
LINE
  5
288C
330
1F
100
AcDbEntity
  8
3-線
100
AcDbLine
 10
213.0999986347402
 20
190.9
 30
0.0
 11
217.5999995716832
 21
190.9
 31
0.0
  0
LINE
  5
288D
330
1F
100
AcDbEntity
  8
3-線
100
AcDbLine
 10
213.0999990362866
 20
189.400002342835
 30
0.0
 11
213.0999986347402
 21
190.9
 31
0.0
  0
LINE
  5
2891
330
1F
100
AcDbEntity
  8
3-線
100
AcDbLine
 10
230.4999979631032
 20
189.3999907094453
 30
0.0
 11
226.4999967962282
 21
189.3999939409437
 31
0.0
  0
LINE
  5
2893
330
1F
100
AcDbEntity
  8
3-線
100
AcDbLine
 10
226.4999984430634
 20
193.5339744931663
 30
0.0
 11
226.4999973364051
 21
189.3999939409435
 31
0.0
  0
LINE
  5
2894
330
1F
100
AcDbEntity
  8
3-線
100
AcDbLine
 10
225.4999984430634
 20
193.5339746992649
 30
0.0
 11
225.4999973364046
 21
189.3999923251948
 31
0.0
  0
LINE
  5
2896
330
1F
100
AcDbEntity
  8
3-線
100
AcDbLine
 10
226.4999975371802
 20
190.14999994646
 30
0.0
 11
226.4000007497789
 21
190.1499999999979
 31
0.0
  0
LINE
  5
2897
330
1F
100
AcDbEntity
  8
3-線
100
AcDbLine
 10
225.6000010947774
 20
190.1499999464585
 30
0.0
 11
225.4999975371802
 21
190.15
 31
0.0
  0
ARC
  5
2898
330
1F
100
AcDbEntity
  8
3-線
100
AcDbCircle
 10
230.4999983670404
 20
189.8999907094452
 30
0.0
 40
0.5
100
AcDbArc
 50
269.9999537122093
 51
359.9999846620345
  0
LINE
  5
2899
330
1F
100
AcDbEntity
  8
1-破線
100
AcDbLine
 10
230.9999976977962
 20
191.3999938429468
 30
0.0
 11
230.4999978316452
 21
191.8999938429468
 31
0.0
  0
LINE
  5
289B
330
1F
100
AcDbEntity
  8
3-線
100
AcDbLine
 10
225.5000000086055
 20
199.3999975022832
 30
0.0
 11
213.1000009101732
 21
199.400000762461
 31
0.0
  0
LINE
  5
289D
330
1F
100
AcDbEntity
  8
3-線
100
AcDbLine
 10
213.100000508626
 20
197.9
 30
0.0
 11
217.5999995716832
 21
197.9
 31
0.0
  0
LINE
  5
289F
330
1F
100
AcDbEntity
  8
3-線
100
AcDbLine
 10
213.1000009101732
 20
199.400000762461
 30
0.0
 11
213.100000508626
 21
197.9
 31
0.0
  0
LINE
  5
28A2
330
1F
100
AcDbEntity
  8
3-線
100
AcDbLine
 10
230.5000009077827
 20
199.3999969764477
 30
0.0
 11
226.5000000086056
 21
199.3999980281184
 31
0.0
  0
LINE
  5
28A3
330
1F
100
AcDbEntity
  8
3-線
100
AcDbLine
 10
226.500000013386
 20
199.3999980281184
 30
0.0
 11
226.4999989067298
 21
195.2660252391358
 31
0.0
  0
LINE
  5
28A4
330
1F
100
AcDbEntity
  8
3-線
100
AcDbLine
 10
225.5000000133859
 20
199.3999975022832
 30
0.0
 11
225.4999989067299
 21
195.2660255684332
 31
0.0
  0
LINE
  5
28A5
330
1F
100
AcDbEntity
  8
3-線
100
AcDbLine
 10
226.4999998126131
 20
198.64999994646
 30
0.0
 11
226.4000000906317
 21
198.6499999999994
 31
0.0
  0
LINE
  5
28A8
330
1F
100
AcDbEntity
  8
3-線
100
AcDbLine
 10
225.6000006562736
 20
198.64999994646
 30
0.0
 11
225.499999812613
 21
198.65
 31
0.0
  0
LINE
  5
28A9
330
1F
100
AcDbEntity
  8
1-破線
100
AcDbLine
 10
231.0000003747762
 20
197.3999938429462
 30
0.0
 11
230.5000002409272
 21
196.8999938429463
 31
0.0
  0
LINE
  5
29C6
330
1F
100
AcDbEntity
  8
1-破線
100
AcDbLine
 10
230.5000002409272
 20
196.8999938429463
 30
0.0
 11
220.76637759508
 21
196.8999990542887
 31
0.0
  0
LINE
  5
29C7
330
1F
100
AcDbEntity
  8
1-破線
100
AcDbLine
 10
230.4999978316452
 20
191.8999938429468
 30
0.0
 11
220.7663751276345
 21
191.8999990542893
 31
0.0
  0
ARC
  5
2A23
330
1F
100
AcDbEntity
  8
3-線
100
AcDbCircle
 10
225.99999862155
 20
194.4
 30
0.0
 40
1.0
100
AcDbArc
 50
113.5780454420667
 51
246.4219702990531
  0
ARC
  5
2A24
330
1F
100
AcDbEntity
  8
3-線
100
AcDbCircle
 10
225.99999862155
 20
194.4
 30
0.0
 40
1.0
100
AcDbArc
 50
293.5783006781696
 51
66.42171883666198
  0
CIRCLE
  5
2A2A
330
1F
100
AcDbEntity
  8
3-線
100
AcDbCircle
 10
215.9999995716832
 20
194.4
 30
0.0
 40
1.6
  0
CIRCLE
  5
2A2B
330
1F
100
AcDbEntity
  8
3-線
100
AcDbCircle
 10
215.9999995716832
 20
194.4
 30
0.0
 40
2.9
  0
LINE
  5
2A34
330
1F
100
AcDbEntity
  8
1-破線
100
AcDbLine
 10
217.5999995716832
 20
199.3999995793322
 30
0.0
 11
217.5999995716832
 21
197.4
 31
0.0
  0
LINE
  5
2A35
330
1F
100
AcDbEntity
  8
1-破線
100
AcDbLine
 10
217.5999995716832
 20
191.4
 30
0.0
 11
217.5999995716832
 21
189.3999987074
 31
0.0
  0
LINE
  5
2A36
330
1F
100
AcDbEntity
  8
1-破線
100
AcDbLine
 10
214.3999979654955
 20
191.400000856634
 30
0.0
 11
214.3999968947029
 21
189.3999995640343
 31
0.0
  0
LINE
  5
2A37
330
1F
100
AcDbEntity
  8
1-破線
100
AcDbLine
 10
214.4000022486632
 20
199.400000435965
 30
0.0
 11
214.4000011778714
 21
197.4000008566332
 31
0.0
  0
LINE
  5
2A39
330
1F
100
AcDbEntity
  8
3-線
100
AcDbLine
 10
213.100000508626
 20
197.9
 30
0.0
 11
213.4233529693865
 21
197.5146435432147
 31
0.0
  0
LINE
  5
2A3A
330
1F
100
AcDbEntity
  8
3-線
100
AcDbLine
 10
213.100000508626
 20
190.9
 30
0.0
 11
213.4233529693865
 21
191.2853564567854
 31
0.0
  0
LINE
  5
2A3B
330
1F
100
AcDbEntity
  8
3-線
100
AcDbLine
 10
213.9841522339517
 20
197.4
 30
0.0
 11
218.5000003747772
 21
197.4
 31
0.0
  0
LINE
  5
2A3C
330
1F
100
AcDbEntity
  8
3-線
100
AcDbLine
 10
213.9841522339517
 20
191.4
 30
0.0
 11
218.4999987685894
 21
191.4
 31
0.0
  0
ARC
  5
2A3D
330
1F
100
AcDbEntity
  8
3-線
100
AcDbCircle
 10
218.8499995716838
 20
194.4
 30
0.0
 40
3.149999999999999
100
AcDbArc
 50
252.2472098380533
 51
107.7527901619467
  0
LINE
  5
2A45
330
1F
100
AcDbEntity
  8
3-線
100
AcDbLine
 10
219.0000002409283
 20
196.9000000000001
 30
0.0
 11
218.9999989024384
 21
191.9
 31
0.0
  0
LINE
  5
2A46
330
1F
100
AcDbEntity
  8
3-線
100
AcDbLine
 10
218.5000003747772
 20
197.4
 30
0.0
 11
219.0000002409283
 21
196.9000000000001
 31
0.0
  0
LINE
  5
2A47
330
1F
100
AcDbEntity
  8
3-線
100
AcDbLine
 10
218.4999987685894
 20
191.4
 30
0.0
 11
218.9999989024384
 21
191.9
 31
0.0
  0
LINE
  5
2A68
330
1F
100
AcDbEntity
  8
3-線
100
AcDbLine
 10
215.2048077955276
 20
197.3
 30
0.0
 11
215.9999995716832
 21
197.3
 31
0.0
  0
ARC
  5
2A69
330
1F
100
AcDbEntity
  8
3-線
100
AcDbCircle
 10
215.2048077955276
 20
204.7999999999996
 30
0.0
 40
7.5
100
AcDbArc
 50
226.0544654401437
 51
270.0
  0
ARC
  5
2A6A
330
1F
100
AcDbEntity
  8
3-線
100
AcDbCircle
 10
215.2048077955276
 20
184.0000000000005
 30
0.0
 40
7.5
100
AcDbArc
 50
90.00000000000005
 51
133.9455345598563
  0
LINE
  5
2A6B
330
1F
100
AcDbEntity
  8
3-線
100
AcDbLine
 10
215.2048077955276
 20
191.5000000000001
 30
0.0
 11
215.9999995716832
 21
191.5000000000001
 31
0.0
  0
ARC
  5
2A6E
330
1F
100
AcDbEntity
  8
3-線
100
AcDbCircle
 10
218.4079541171382
 20
194.4
 30
0.0
 40
3.592045454545572
100
AcDbArc
 50
257.0013074406836
 51
102.9986925593167
  0
LINE
  5
2A71
330
1F
100
AcDbEntity
  8
3-線
100
AcDbLine
 10
205.0000009101732
 20
199.4000021798268
 30
0.0
 11
204.9999993173713
 21
193.4500063568462
 31
0.0
  0
LINE
  5
2A73
330
1F
100
AcDbEntity
  8
3-線
100
AcDbLine
 10
205.3000007361689
 20
198.6500051541588
 30
0.0
 11
206.700000736169
 21
198.6500047793816
 31
0.0
  0
LINE
  5
2A76
330
1F
100
AcDbEntity
  8
3-線
100
AcDbLine
 10
205.3000007361689
 20
198.6500051541588
 30
0.0
 11
205.0000006558596
 21
198.3500051541588
 31
0.0
  0
LINE
  5
2A77
330
1F
100
AcDbEntity
  8
3-線
100
AcDbLine
 10
206.700000736169
 20
198.6500047793816
 30
0.0
 11
207.0000006558595
 21
198.3500046187628
 31
0.0
  0
LINE
  5
2A78
330
1F
100
AcDbEntity
  8
3-線
100
AcDbLine
 10
207.0000009101732
 20
199.4000016444308
 30
0.0
 11
206.9999993173712
 21
193.4500058482215
 31
0.0
  0
LINE
  5
2A7A
330
1F
100
AcDbEntity
  8
3-線
100
AcDbLine
 10
205.0000006558596
 20
198.3500051541588
 30
0.0
 11
207.0000006558595
 21
198.3500046187628
 31
0.0
  0
LINE
  5
2A7B
330
1F
100
AcDbEntity
  8
3-線
100
AcDbLine
 10
206.5999991835206
 20
193.0500057411423
 30
0.0
 11
206.5999984071964
 21
190.1500057411423
 31
0.0
  0
LINE
  5
2A7C
330
1F
100
AcDbEntity
  8
3-線
100
AcDbLine
 10
205.3999991835206
 20
193.0500057411423
 30
0.0
 11
205.3999984071964
 21
190.1500057411423
 31
0.0
  0
LINE
  5
2A81
330
1F
100
AcDbEntity
  8
3-線
100
AcDbLine
 10
205.3999991835206
 20
193.0500057411423
 30
0.0
 11
206.5999991835206
 21
193.0500057411423
 31
0.0
  0
LINE
  5
2A82
330
1F
100
AcDbEntity
  8
3-線
100
AcDbLine
 10
205.3999984071964
 20
190.1500057411423
 30
0.0
 11
206.5999984071964
 21
190.1500057411423
 31
0.0
  0
LINE
  5
2A84
330
1F
100
AcDbEntity
  8
3-線
100
AcDbLine
 10
206.5999991835206
 20
193.0500057411423
 30
0.0
 11
206.9999992905999
 21
193.4500058482215
 31
0.0
  0
LINE
  5
2A85
330
1F
100
AcDbEntity
  8
3-線
100
AcDbLine
 10
205.3999991835206
 20
193.0500060623798
 30
0.0
 11
204.9999992905999
 21
193.4500063836175
 31
0.0
  0
LINE
  5
2A86
330
1F
100
AcDbEntity
  8
3-線
100
AcDbLine
 10
204.9999992905999
 20
193.4500063836175
 30
0.0
 11
206.9999992905999
 21
193.4500058482215
 31
0.0
  0
LINE
  5
2A87
330
1F
100
AcDbEntity
  8
3-線
100
AcDbLine
 10
206.9999989024378
 20
191.9
 30
0.0
 11
206.9999982331924
 21
189.3999986376082
 31
0.0
  0
LINE
  5
2A88
330
1F
100
AcDbEntity
  8
3-線
100
AcDbLine
 10
204.9999989024377
 20
191.9
 30
0.0
 11
204.9999982331921
 21
189.3999978201732
 31
0.0
  0
LINE
  5
2A8B
330
1F
100
AcDbEntity
  8
3-線
100
AcDbLine
 10
205.4999982331922
 20
189.3999979564124
 30
0.0
 11
205.4999984339677
 21
190.1500057411423
 31
0.0
  0
LINE
  5
2A8C
330
1F
100
AcDbEntity
  8
3-線
100
AcDbLine
 10
206.4999982331924
 20
189.3999986376082
 30
0.0
 11
206.4999984339678
 21
190.1500057411423
 31
0.0
  0
LINE
  5
2A8D
330
1F
100
AcDbEntity
  8
3-線
100
AcDbLine
 10
205.4999982331922
 20
199.4000020435876
 30
0.0
 11
205.4999984339648
 21
198.6500051006198
 31
0.0
  0
LINE
  5
2A8E
330
1F
100
AcDbEntity
  8
3-線
100
AcDbLine
 10
206.4999982331924
 20
199.4000013623919
 30
0.0
 11
206.499998433965
 21
198.6500048329218
 31
0.0
  0
ARC
  5
2A97
330
1F
100
AcDbEntity
  8
3-線
100
AcDbCircle
 10
226.0000004729697
 20
199.0499998490099
 30
0.0
 40
0.4000002362032998
100
AcDbArc
 50
359.8668134070973
 51
179.999986041316
  0
ARC
  5
2A98
330
1F
100
AcDbEntity
  8
3-線
100
AcDbCircle
 10
226.0000004729697
 20
189.7500001509902
 30
0.0
 40
0.4000002362032998
100
AcDbArc
 50
180.0000139586839
 51
0.1331865929027022
  0
CIRCLE
  5
2A9B
330
1F
100
AcDbEntity
  8
3-線
100
AcDbCircle
 10
206.0000011599894
 20
199.0500052029695
 30
0.0
 40
0.4000002362032962
  0
CIRCLE
  5
2A9C
330
1F
100
AcDbEntity
  8
3-線
100
AcDbCircle
 10
205.999996180807
 20
189.750005504951
 30
0.0
 40
0.4000002362032931
  0
ARC
  5
2AB0
330
1F
100
AcDbEntity
  8
3-線
100
AcDbCircle
 10
230.500001497049
 20
198.8999953702593
 30
0.0
 40
0.5
100
AcDbArc
 50
359.9999728636039
 51
89.99998493593103
  0
LINE
  5
2AB2
330
1F
100
AcDbEntity
  8
3-線
100
AcDbLine
 10
231.0000014970489
 20
198.8999951334496
 30
0.0
 11
230.9999971627705
 21
189.9006844762957
 31
0.0
  0
LINE
  5
2BC8
330
1F
100
AcDbEntity
  8
3-線
100
AcDbLine
 10
182.9999997189172
 20
193.4500063836175
 30
0.0
 11
184.9999997189172
 21
193.4500058482215
 31
0.0
  0
LINE
  5
2BC9
330
1F
100
AcDbEntity
  8
3-線
100
AcDbLine
 10
184.5999996118379
 20
193.0500057411423
 30
0.0
 11
184.9999997189172
 21
193.4500058482215
 31
0.0
  0
LINE
  5
2BCA
330
1F
100
AcDbEntity
  8
3-線
100
AcDbLine
 10
183.3999996118379
 20
193.0500057411423
 30
0.0
 11
184.5999996118379
 21
193.0500057411423
 31
0.0
  0
LINE
  5
2BCB
330
1F
100
AcDbEntity
  8
3-線
100
AcDbLine
 10
183.399999611838
 20
193.0500060623798
 30
0.0
 11
182.9999997189172
 21
193.4500063836175
 31
0.0
  0
LINE
  5
2BCC
330
1F
100
AcDbEntity
  8
3-線
100
AcDbLine
 10
185.0000006133731
 20
196.691287579781
 30
0.0
 11
184.9999997456885
 21
193.4500058482215
 31
0.0
  0
LINE
  5
2BCD
330
1F
100
AcDbEntity
  8
3-線
100
AcDbLine
 10
183.0000006133731
 20
196.6912881151769
 30
0.0
 11
182.9999997456885
 21
193.4500063568462
 31
0.0
  0
LINE
  5
2BCE
330
1F
100
AcDbEntity
  8
3-線
100
AcDbLine
 10
184.5999996118379
 20
193.0500057411423
 30
0.0
 11
184.5999993235437
 21
191.9730676128594
 31
0.0
  0
LINE
  5
2BCF
330
1F
100
AcDbEntity
  8
3-線
100
AcDbLine
 10
183.3999996118379
 20
193.0500057411423
 30
0.0
 11
183.3999993235438
 21
191.9730679473342
 31
0.0
  0
LINE
  5
2BE1
330
1F
100
AcDbEntity
  8
3-線
100
AcDbLine
 10
245.7087124202191
 20
195.4000006133732
 30
0.0
 11
248.9499941517784
 21
195.3999997456886
 31
0.0
  0
LINE
  5
2BE2
330
1F
100
AcDbEntity
  8
3-線
100
AcDbLine
 10
245.7087118848231
 20
193.4000006133732
 30
0.0
 11
248.9499936431539
 21
193.3999997456886
 31
0.0
  0
CIRCLE
  5
2BE3
330
1F
100
AcDbEntity
  8
3-線
100
AcDbCircle
 10
248.0
 20
194.4
 30
0.0
 40
2.50000000000099
  0
CIRCLE
  5
2BE4
330
1F
100
AcDbEntity
  8
3-線
100
AcDbCircle
 10
248.0
 20
194.4
 30
0.0
 40
2.999999576150978
  0
CIRCLE
  5
2BE5
330
1F
100
AcDbEntity
  8
3-線
100
AcDbCircle
 10
248.0
 20
194.4
 30
0.0
 40
5.00000313350132
  0
LINE
  5
2BE6
330
1F
100
AcDbEntity
  8
3-線
100
AcDbLine
 10
249.3499942588578
 20
193.7999996118379
 30
0.0
 11
249.3499942588578
 21
194.9999996118379
 31
0.0
  0
LINE
  5
2BE7
330
1F
100
AcDbEntity
  8
3-線
100
AcDbLine
 10
248.9499936163825
 20
193.3999997189173
 30
0.0
 11
248.9499941517784
 21
195.3999997189172
 31
0.0
  0
LINE
  5
2BE8
330
1F
100
AcDbEntity
  8
3-線
100
AcDbLine
 10
249.3499942588578
 20
193.7999996118379
 30
0.0
 11
250.4269320526658
 21
193.7999993235438
 31
0.0
  0
LINE
  5
2BE9
330
1F
100
AcDbEntity
  8
3-線
100
AcDbLine
 10
249.3499939376202
 20
193.799999611838
 30
0.0
 11
248.9499936163825
 21
193.3999997189173
 31
0.0
  0
LINE
  5
2BEA
330
1F
100
AcDbEntity
  8
3-線
100
AcDbLine
 10
249.3499942588578
 20
194.9999996118379
 30
0.0
 11
250.4269323871405
 21
194.9999993235438
 31
0.0
  0
LINE
  5
2BEB
330
1F
100
AcDbEntity
  8
3-線
100
AcDbLine
 10
249.3499942588578
 20
194.9999996118379
 30
0.0
 11
248.9499941517784
 21
195.3999997189172
 31
0.0
  0
VIEWPORT
  5
23E8
330
23
100
AcDbEntity
 67
     1
  8
0
100
AcDbViewport
 10
4.799458060677594
 20
4.021899493660511
 30
0.0
 40
16.91665644184231
 41
8.992999745766947
 68
     1
 69
     1
 12
4.799458060677594
 22
4.021899493660511
 13
0.0
 23
0.0
 14
10.0
 24
10.0
 15
10.0
 25
10.0
 16
0.0
 26
0.0
 36
1.0
 17
0.0
 27
0.0
 37
0.0
 42
50.0
 43
0.0
 44
0.0
 45
8.992999745766947
 50
0.0
 51
0.0
 72
   100
 90
    32800
  1

281
     0
 71
     1
 74
     0
110
0.0
120
0.0
130
0.0
111
1.0
121
0.0
131
0.0
112
0.0
122
1.0
132
0.0
 79
     0
146
0.0
170
     0
  0
VIEWPORT
  5
23EA
330
23
100
AcDbEntity
 67
     1
  8
1-線
100
AcDbViewport
 10
4.799458285954992
 20
4.021899549979861
 30
0.0
 40
7.679133257527986
 41
6.43503927996778
 68
     2
 69
     2
 12
210.0000019558372
 22
148.5000013830561
 13
0.0
 23
0.0
 14
4.0
 24
4.0
 15
8.0
 25
8.0
 16
0.0
 26
0.0
 36
1.0
 17
0.0
 27
0.0
 37
0.0
 42
50.0
 43
0.0
 44
0.0
 45
356.8207987134424
 50
0.0
 51
0.0
 72
   100
 90
    33376
  1

281
     0
 71
     1
 74
     0
110
0.0
120
0.0
130
0.0
111
1.0
121
0.0
131
0.0
112
0.0
122
1.0
132
0.0
 79
     0
146
0.0
170
     0
  0
ENDSEC
  0
SECTION
  2
OBJECTS
  0
DICTIONARY
  5
C
330
0
100
AcDbDictionary
281
     1
  3
ACAD_COLOR
350
2624
  3
ACAD_GROUP
350
D
  3
ACAD_LAYOUT
350
1A
  3
ACAD_MATERIAL
350
2623
  3
ACAD_MLINESTYLE
350
17
  3
ACAD_PLOTSETTINGS
350
19
  3
ACAD_PLOTSTYLENAME
350
E
  3
AcadDim
350
1BC8
  3
AcDbVariableDictionary
350
985
  0
DICTIONARY
  5
474
330
1F
100
AcDbDictionary
280
     1
281
     1
  3
ACAD_LAYOUTSELFREF
360
4B6
  0
DICTIONARY
  5
478
330
23
100
AcDbDictionary
280
     1
281
     1
  3
ACAD_LAYOUTSELFREF
360
4B7
  0
DICTIONARY
  5
476
330
1B
100
AcDbDictionary
280
     1
281
     1
  3
ACAD_LAYOUTSELFREF
360
4B5
  0
DICTIONARY
  5
2624
102
{ACAD_REACTORS
330
C
102
}
330
C
100
AcDbDictionary
281
     1
  0
DICTIONARY
  5
D
102
{ACAD_REACTORS
330
C
102
}
330
C
100
AcDbDictionary
281
     1
  0
DICTIONARY
  5
1A
102
{ACAD_REACTORS
330
C
102
}
330
C
100
AcDbDictionary
281
     1
  3
Model
350
22
  3
ﾚｲｱｳﾄ1
350
1E
  3
ﾚｲｱｳﾄ2
350
26
  0
DICTIONARY
  5
2623
102
{ACAD_REACTORS
330
C
102
}
330
C
100
AcDbDictionary
281
     1
  0
DICTIONARY
  5
17
102
{ACAD_REACTORS
330
C
102
}
330
C
100
AcDbDictionary
281
     1
  3
Standard
350
18
  0
DICTIONARY
  5
19
102
{ACAD_REACTORS
330
C
102
}
330
C
100
AcDbDictionary
281
     1
  3
Kyouwa-A3
350
21F2
  0
ACDBDICTIONARYWDFLT
  5
E
102
{ACAD_REACTORS
330
C
102
}
330
C
100
AcDbDictionary
281
     1
  3
Normal
350
F
100
AcDbDictionaryWithDefault
340
F
1001
ACAD
1000
TREAT_AS_HARD
1070
     0
  0
XRECORD
  5
1BC8
102
{ACAD_REACTORS
330
C
102
}
330
C
100
AcDbXrecord
280
     1
 90
   990106
  3

 60
     4
 61
     0
 62
     4
 63
     4
 64
     1
 65
     0
 66
     0
 67
     2
 68
     1
 69
     0
 70
     0
 71
     0
 72
     0
 40
15.0
170
     1
340
0
  0
DICTIONARY
  5
985
102
{ACAD_REACTORS
330
C
102
}
330
C
100
AcDbDictionary
281
     1
  3
DIMASSOC
350
265B
  3
PROJECTNAME
350
265C
  3
SORTENTS
350
986
  0
XRECORD
  5
4B6
102
{ACAD_REACTORS
330
474
102
}
330
474
100
AcDbXrecord
280
     1
340
1F
  0
XRECORD
  5
4B7
102
{ACAD_REACTORS
330
478
102
}
330
478
100
AcDbXrecord
280
     1
340
23
  0
XRECORD
  5
4B5
102
{ACAD_REACTORS
330
476
102
}
330
476
100
AcDbXrecord
280
     1
340
1B
  0
LAYOUT
  5
22
102
{ACAD_REACTORS
330
1A
102
}
330
1A
100
AcDbPlotSettings
  1
Kyouwa-A3
  2
HP DesignJet 430.pc3
  4
User269
  6
OLE1
 40
4.995333194732666
 41
16.93333625793457
 42
4.995330810546875
 43
16.93331909179687
 44
296.9259948730469
 45
419.8619995117185
 46
-5.0
 47
-25.0
 48
0.0
 49
0.0
140
0.0
141
0.0
142
1.0
143
1.0
 70
 11952
 72
     1
 73
     1
 74
     2
  7
monochrome.ctb
 75
    16
147
1.0
 76
     0
 77
     2
 78
   300
148
0.0
149
0.0
100
AcDbLayout
  1
Model
 70
     1
 71
     0
 10
0.0
 20
0.0
 11
12.0
 21
9.0
 12
0.0
 22
0.0
 32
0.0
 14
0.0
 24
0.0
 34
0.0
 15
0.0
 25
0.0
 35
0.0
146
0.0
 13
0.0
 23
0.0
 33
0.0
 16
1.0
 26
0.0
 36
0.0
 17
0.0
 27
1.0
 37
0.0
 76
     0
330
1F
  0
LAYOUT
  5
1E
102
{ACAD_REACTORS
330
1A
102
}
330
1A
100
AcDbPlotSettings
  1

  2
C:\PROGRAM FILES\AUTOCAD LT 2000I\plotters\DWF Classic.pc3
  4

  6

 40
0.0
 41
0.0
 42
0.0
 43
0.0
 44
0.0
 45
0.0
 46
0.0
 47
0.0
 48
0.0
 49
0.0
140
0.0
141
0.0
142
1.0
143
1.0
 70
   688
 72
     0
 73
     0
 74
     5
  7
monochrome.ctb
 75
    16
147
1.0
 76
     0
 77
     2
 78
   300
148
0.0
149
0.0
100
AcDbLayout
  1
ﾚｲｱｳﾄ1
 70
     1
 71
     1
 10
0.0
 20
0.0
 11
420.0
 21
297.0
 12
0.0
 22
0.0
 32
0.0
 14
1.000000000000000E+20
 24
1.000000000000000E+20
 34
1.000000000000000E+20
 15
-1.000000000000000E+20
 25
-1.000000000000000E+20
 35
-1.000000000000000E+20
146
0.0
 13
0.0
 23
0.0
 33
0.0
 16
1.0
 26
0.0
 36
0.0
 17
0.0
 27
1.0
 37
0.0
 76
     0
330
1B
  0
LAYOUT
  5
26
102
{ACAD_REACTORS
330
1A
102
}
330
1A
100
AcDbPlotSettings
  1

  2
C:\PROGRAM FILES\AUTOCAD LT 2000I\plotters\DWF Classic.pc3
  4
ANSI_A_(8.50_x_11.00_Inches)
  6

 40
5.793749809265136
 41
17.79375076293945
 42
5.793746948242187
 43
17.79376220703125
 44
215.8999938964844
 45
279.3999938964844
 46
0.0
 47
0.0
 48
0.0
 49
0.0
140
0.0
141
0.0
142
1.0
143
1.0
 70
   688
 72
     0
 73
     1
 74
     5
  7
monochrome.ctb
 75
    16
147
1.0
 76
     0
 77
     2
 78
   300
148
0.0
149
0.0
100
AcDbLayout
  1
ﾚｲｱｳﾄ2
 70
     1
 71
     2
 10
-0.7005418191744587
 20
-0.2281003861915408
 11
10.29945794052965
 21
8.271899373512567
 12
0.0
 22
0.0
 32
0.0
 14
0.9598916571909988
 24
0.8043799099959727
 34
0.0
 15
8.639024914718985
 25
7.239419189963752
 35
0.0
146
0.0
 13
0.0
 23
0.0
 33
0.0
 16
1.0
 26
0.0
 36
0.0
 17
0.0
 27
1.0
 37
0.0
 76
     0
330
23
331
23E8
  0
MLINESTYLE
  5
18
102
{ACAD_REACTORS
330
17
102
}
330
17
100
AcDbMlineStyle
  2
STANDARD
 70
     0
  3

 62
   256
 51
90.0
 52
90.0
 71
     2
 49
0.5
 62
   256
  6
BYLAYER
 49
-0.5
 62
   256
  6
BYLAYER
  0
PLOTSETTINGS
  5
21F2
102
{ACAD_REACTORS
330
19
102
}
330
19
100
AcDbPlotSettings
  1
Kyouwa-A3
  2
HP DesignJet 430.pc3
  4
User269
  6
OLE1
 40
4.995333194732666
 41
16.93333625793457
 42
4.995330810546875
 43
16.93331909179687
 44
296.9259948730469
 45
419.8619995117185
 46
-5.0
 47
-25.0
 48
0.0
 49
0.0
140
0.0
141
0.0
142
1.0
143
1.0
 70
  1712
 72
     1
 73
     1
 74
     2
  7
monochrome.ctb
 75
    16
147
1.0
 76
     0
 77
     2
 78
   300
148
0.0
149
0.0
  0
ACDBPLACEHOLDER
  5
F
102
{ACAD_REACTORS
330
E
102
}
330
E
  0
DICTIONARYVAR
  5
265B
102
{ACAD_REACTORS
330
985
102
}
330
985
100
DictionaryVariables
280
     0
  1
1
  0
DICTIONARYVAR
  5
265C
102
{ACAD_REACTORS
330
985
102
}
330
985
100
DictionaryVariables
280
     0
  1

  0
DICTIONARYVAR
  5
986
102
{ACAD_REACTORS
330
985
102
}
330
985
100
DictionaryVariables
280
     0
  1
96
  0
ENDSEC
  0
EOF
