  0
SECTION
  2
HEADER
  9
$ACADVER
  1
AC1018
  9
$ACADMAINTVER
 70
     2
  9
$DWGCODEPAGE
  3
ANSI_932
  9
$INSBASE
 10
0.0
 20
0.0
 30
0.0
  9
$EXTMIN
 10
187.9861462162646
 20
191.8925637811103
 30
-0.0000000000112498
  9
$EXTMAX
 10
244.0301521402205
 20
200.1178899830182
 30
0.0000000000002956
  9
$LIMMIN
 10
0.0
 20
0.0
  9
$LIMMAX
 10
420.0
 20
297.0
  9
$ORTHOMODE
 70
     0
  9
$REGENMODE
 70
     1
  9
$FILLMODE
 70
     1
  9
$QTEXTMODE
 70
     0
  9
$MIRRTEXT
 70
     1
  9
$LTSCALE
 40
0.5
  9
$ATTMODE
 70
     1
  9
$TEXTSIZE
 40
3.0
  9
$TRACEWID
 40
1.0
  9
$TEXTSTYLE
  7
Standard
  9
$CLAYER
  8
2-線
  9
$CELTYPE
  6
ByLayer
  9
$CECOLOR
 62
   256
  9
$CELTSCALE
 40
1.0
  9
$DISPSILH
 70
     0
  9
$DIMSCALE
 40
1.0
  9
$DIMASZ
 40
2.5
  9
$DIMEXO
 40
0.0
  9
$DIMDLI
 40
3.75
  9
$DIMRND
 40
0.0
  9
$DIMDLE
 40
0.0
  9
$DIMEXE
 40
1.0
  9
$DIMTP
 40
0.0
  9
$DIMTM
 40
0.0
  9
$DIMTXT
 40
3.0
  9
$DIMCEN
 40
0.0
  9
$DIMTSZ
 40
0.0
  9
$DIMTOL
 70
     0
  9
$DIMLIM
 70
     0
  9
$DIMTIH
 70
     0
  9
$DIMTOH
 70
     0
  9
$DIMSE1
 70
     0
  9
$DIMSE2
 70
     0
  9
$DIMTAD
 70
     1
  9
$DIMZIN
 70
     8
  9
$DIMBLK
  1
Open30
  9
$DIMASO
 70
     1
  9
$DIMSHO
 70
     1
  9
$DIMPOST
  1

  9
$DIMAPOST
  1

  9
$DIMALT
 70
     0
  9
$DIMALTD
 70
     3
  9
$DIMALTF
 40
0.1
  9
$DIMLFAC
 40
1.0
  9
$DIMTOFL
 70
     1
  9
$DIMTVP
 40
0.0
  9
$DIMTIX
 70
     0
  9
$DIMSOXD
 70
     0
  9
$DIMSAH
 70
     0
  9
$DIMBLK1
  1

  9
$DIMBLK2
  1

  9
$DIMSTYLE
  2
Kyouwa
  9
$DIMCLRD
 70
     0
  9
$DIMCLRE
 70
     0
  9
$DIMCLRT
 70
     0
  9
$DIMTFAC
 40
0.7
  9
$DIMGAP
 40
1.0
  9
$DIMJUST
 70
     0
  9
$DIMSD1
 70
     0
  9
$DIMSD2
 70
     0
  9
$DIMTOLJ
 70
     0
  9
$DIMTZIN
 70
     8
  9
$DIMALTZ
 70
     0
  9
$DIMALTTZ
 70
     0
  9
$DIMUPT
 70
     0
  9
$DIMDEC
 70
     2
  9
$DIMTDEC
 70
     2
  9
$DIMALTU
 70
     2
  9
$DIMALTTD
 70
     3
  9
$DIMTXSTY
  7
Standard
  9
$DIMAUNIT
 70
     0
  9
$DIMADEC
 70
     0
  9
$DIMALTRND
 40
0.0
  9
$DIMAZIN
 70
     0
  9
$DIMDSEP
 70
    46
  9
$DIMATFIT
 70
     3
  9
$DIMFRAC
 70
     0
  9
$DIMLDRBLK
  1
Open30
  9
$DIMLUNIT
 70
     2
  9
$DIMLWD
 70
    -2
  9
$DIMLWE
 70
    -2
  9
$DIMTMOVE
 70
     0
  9
$LUNITS
 70
     2
  9
$LUPREC
 70
     4
  9
$SKETCHINC
 40
1.0
  9
$FILLETRAD
 40
1.0
  9
$AUNITS
 70
     0
  9
$AUPREC
 70
     0
  9
$MENU
  1
.
  9
$ELEVATION
 40
0.0
  9
$PELEVATION
 40
0.0
  9
$THICKNESS
 40
0.0
  9
$LIMCHECK
 70
     0
  9
$CHAMFERA
 40
0.0
  9
$CHAMFERB
 40
0.0
  9
$CHAMFERC
 40
20.0
  9
$CHAMFERD
 40
0.0
  9
$SKPOLY
 70
     0
  9
$TDCREATE
 40
2452108.402762732
  9
$TDUCREATE
 40
2452108.027762732
  9
$TDUPDATE
 40
2454348.739369213
  9
$TDUUPDATE
 40
2454348.364369213
  9
$TDINDWG
 40
1.3871717130
  9
$TDUSRTIMER
 40
1.3871717130
  9
$USRTIMER
 70
     1
  9
$ANGBASE
 50
0.0
  9
$ANGDIR
 70
     0
  9
$PDMODE
 70
     0
  9
$PDSIZE
 40
0.0
  9
$PLINEWID
 40
0.0
  9
$SPLFRAME
 70
     0
  9
$SPLINETYPE
 70
     6
  9
$SPLINESEGS
 70
     8
  9
$HANDSEED
  5
2D8F
  9
$SURFTAB1
 70
     6
  9
$SURFTAB2
 70
     6
  9
$SURFTYPE
 70
     6
  9
$SURFU
 70
     6
  9
$SURFV
 70
     6
  9
$UCSBASE
  2

  9
$UCSNAME
  2

  9
$UCSORG
 10
0.0
 20
0.0
 30
0.0
  9
$UCSXDIR
 10
1.0
 20
0.0
 30
0.0
  9
$UCSYDIR
 10
0.0
 20
1.0
 30
0.0
  9
$UCSORTHOREF
  2

  9
$UCSORTHOVIEW
 70
     0
  9
$UCSORGTOP
 10
0.0
 20
0.0
 30
0.0
  9
$UCSORGBOTTOM
 10
0.0
 20
0.0
 30
0.0
  9
$UCSORGLEFT
 10
0.0
 20
0.0
 30
0.0
  9
$UCSORGRIGHT
 10
0.0
 20
0.0
 30
0.0
  9
$UCSORGFRONT
 10
0.0
 20
0.0
 30
0.0
  9
$UCSORGBACK
 10
0.0
 20
0.0
 30
0.0
  9
$PUCSBASE
  2

  9
$PUCSNAME
  2

  9
$PUCSORG
 10
0.0
 20
0.0
 30
0.0
  9
$PUCSXDIR
 10
1.0
 20
0.0
 30
0.0
  9
$PUCSYDIR
 10
0.0
 20
1.0
 30
0.0
  9
$PUCSORTHOREF
  2

  9
$PUCSORTHOVIEW
 70
     0
  9
$PUCSORGTOP
 10
0.0
 20
0.0
 30
0.0
  9
$PUCSORGBOTTOM
 10
0.0
 20
0.0
 30
0.0
  9
$PUCSORGLEFT
 10
0.0
 20
0.0
 30
0.0
  9
$PUCSORGRIGHT
 10
0.0
 20
0.0
 30
0.0
  9
$PUCSORGFRONT
 10
0.0
 20
0.0
 30
0.0
  9
$PUCSORGBACK
 10
0.0
 20
0.0
 30
0.0
  9
$USERI1
 70
     0
  9
$USERI2
 70
     0
  9
$USERI3
 70
     0
  9
$USERI4
 70
     0
  9
$USERI5
 70
     0
  9
$USERR1
 40
0.0
  9
$USERR2
 40
0.0
  9
$USERR3
 40
0.0
  9
$USERR4
 40
0.0
  9
$USERR5
 40
0.0
  9
$WORLDVIEW
 70
     1
  9
$SHADEDGE
 70
     3
  9
$SHADEDIF
 70
    70
  9
$TILEMODE
 70
     1
  9
$MAXACTVP
 70
    48
  9
$PINSBASE
 10
0.0
 20
0.0
 30
0.0
  9
$PLIMCHECK
 70
     0
  9
$PEXTMIN
 10
0.9598916571909988
 20
0.8043799099959727
 30
0.0
  9
$PEXTMAX
 10
8.639024914718985
 20
7.239419189963752
 30
0.0
  9
$PLIMMIN
 10
-0.7005418191744587
 20
-0.2281003861915408
  9
$PLIMMAX
 10
10.29945794052965
 20
8.271899373512567
  9
$UNITMODE
 70
     0
  9
$VISRETAIN
 70
     1
  9
$PLINEGEN
 70
     0
  9
$PSLTSCALE
 70
     1
  9
$TREEDEPTH
 70
  3020
  9
$CMLSTYLE
  2
Standard
  9
$CMLJUST
 70
     0
  9
$CMLSCALE
 40
20.0
  9
$PROXYGRAPHICS
 70
     1
  9
$MEASUREMENT
 70
     0
  9
$CELWEIGHT
370
    -1
  9
$ENDCAPS
280
     0
  9
$JOINSTYLE
280
     0
  9
$LWDISPLAY
290
     0
  9
$INSUNITS
 70
     4
  9
$HYPERLINKBASE
  1

  9
$STYLESHEET
  1
MONOCHROME.CTB
  9
$XEDIT
290
     1
  9
$CEPSNTYPE
380
     0
  9
$PSTYLEMODE
290
     1
  9
$FINGERPRINTGUID
  2
{D5BDD00D-7A95-11D5-B0EC-00E0181A799A}
  9
$VERSIONGUID
  2
{1CF2D73B-A2B5-40F1-9158-5C08FD4D5A4E}
  9
$EXTNAMES
290
     1
  9
$PSVPSCALE
 40
0.0
  9
$OLESTARTUP
290
     0
  9
$SORTENTS
280
    96
  9
$INDEXCTL
280
     0
  9
$HIDETEXT
280
     0
  9
$XCLIPFRAME
290
     0
  9
$HALOGAP
280
     0
  9
$OBSCOLOR
 70
   257
  9
$OBSLTYPE
280
     0
  9
$INTERSECTIONDISPLAY
280
     0
  9
$INTERSECTIONCOLOR
 70
   257
  9
$DIMASSOC
280
     1
  9
$PROJECTNAME
  1

  0
ENDSEC
  0
SECTION
  2
CLASSES
  0
CLASS
  1
ACDBDICTIONARYWDFLT
  2
AcDbDictionaryWithDefault
  3
ObjectDBX Classes
 90
        0
 91
        1
280
     0
281
     0
  0
CLASS
  1
PLOTSETTINGS
  2
AcDbPlotSettings
  3
ObjectDBX Classes
 90
        0
 91
        1
280
     0
281
     0
  0
CLASS
  1
DICTIONARYVAR
  2
AcDbDictionaryVar
  3
ObjectDBX Classes
 90
        0
 91
        3
280
     0
281
     0
  0
ENDSEC
  0
SECTION
  2
TABLES
  0
TABLE
  2
VPORT
  5
8
330
0
100
AcDbSymbolTable
 70
     3
  0
VPORT
  5
2D8E
330
8
100
AcDbSymbolTableRecord
100
AcDbViewportTableRecord
  2
*Active
 70
     0
 10
0.0
 20
0.0
 11
1.0
 21
1.0
 12
216.0081491782425
 22
196.0052268820643
 13
0.0
 23
0.0
 14
4.0
 24
4.0
 15
8.0
 25
8.0
 16
0.0
 26
0.0
 36
1.0
 17
0.0
 27
0.0
 37
0.0
 40
26.13410399294874
 41
2.155234657039711
 42
50.0
 43
0.0
 44
0.0
 50
0.0
 51
0.0
 71
     0
 72
   100
 73
     1
 74
     3
 75
     0
 76
     1
 77
     0
 78
     0
281
     0
 65
     1
110
0.0
120
0.0
130
0.0
111
1.0
121
0.0
131
0.0
112
0.0
122
1.0
132
0.0
 79
     0
146
0.0
  0
ENDTAB
  0
TABLE
  2
LTYPE
  5
5
330
0
100
AcDbSymbolTable
 70
     6
  0
LTYPE
  5
14
330
5
100
AcDbSymbolTableRecord
100
AcDbLinetypeTableRecord
  2
ByBlock
 70
     0
  3

 72
    65
 73
     0
 40
0.0
  0
LTYPE
  5
15
330
5
100
AcDbSymbolTableRecord
100
AcDbLinetypeTableRecord
  2
ByLayer
 70
     0
  3

 72
    65
 73
     0
 40
0.0
  0
LTYPE
  5
16
330
5
100
AcDbSymbolTableRecord
100
AcDbLinetypeTableRecord
  2
Continuous
 70
     0
  3
Solid line
 72
    65
 73
     0
 40
0.0
  0
LTYPE
  5
2D
330
5
100
AcDbSymbolTableRecord
100
AcDbLinetypeTableRecord
  2
HIDDEN2
 70
     0
  3
Hidden (.5x) _ _ _ _ _ _ _ _ _ _ _ _ _ _ _ _ _
 72
    65
 73
     2
 40
4.762499999999998
 49
3.174999999999998
 74
     0
 49
-1.587499999999999
 74
     0
  0
LTYPE
  5
2E
330
5
100
AcDbSymbolTableRecord
100
AcDbLinetypeTableRecord
  2
CENTER2
 70
     0
  3
Center (.5x) ___ _ ___ _ ___ _ ___ _ ___ _ ___
 72
    65
 73
     4
 40
28.575
 49
19.05
 74
     0
 49
-3.174999999999998
 74
     0
 49
3.174999999999998
 74
     0
 49
-3.174999999999998
 74
     0
  0
LTYPE
  5
2F
330
5
100
AcDbSymbolTableRecord
100
AcDbLinetypeTableRecord
  2
PHANTOM2
 70
     0
  3
Phantom (.5x) ___ _ _ ___ _ _ ___ _ _ ___ _ _
 72
    65
 73
     6
 40
31.75
 49
15.875
 74
     0
 49
-3.174999999999998
 74
     0
 49
3.174999999999998
 74
     0
 49
-3.174999999999998
 74
     0
 49
3.174999999999998
 74
     0
 49
-3.174999999999998
 74
     0
  0
LTYPE
  5
FD
330
5
100
AcDbSymbolTableRecord
100
AcDbLinetypeTableRecord
  2
CENTER
 70
     0
  3
Center ____ _ ____ _ ____ _ ____ _ ____ _ ____
 72
    65
 73
     4
 40
50.8
 49
31.75
 74
     0
 49
-6.349999999999997
 74
     0
 49
6.349999999999997
 74
     0
 49
-6.349999999999997
 74
     0
  0
LTYPE
  5
1DD8
330
5
100
AcDbSymbolTableRecord
100
AcDbLinetypeTableRecord
  2
HIDDEN
 70
     0
  3
_ _ _ _ _ _ _ _ _ _ _ _ _ _ _ _ _ _ _ _ _ _
 72
    65
 73
     2
 40
0.25
 49
0.125
 74
     0
 49
-0.125
 74
     0
  0
ENDTAB
  0
TABLE
  2
LAYER
  5
2
330
0
100
AcDbSymbolTable
 70
    17
  0
LAYER
  5
10
330
2
100
AcDbSymbolTableRecord
100
AcDbLayerTableRecord
  2
0
 70
     0
 62
     7
  6
Continuous
370
   100
390
F
  0
LAYER
  5
30
330
2
100
AcDbSymbolTableRecord
100
AcDbLayerTableRecord
  2
1-線
 70
     0
 62
     3
  6
Continuous
370
    18
390
F
  0
LAYER
  5
31
330
2
100
AcDbSymbolTableRecord
100
AcDbLayerTableRecord
  2
1-破線
 70
     0
 62
     3
  6
HIDDEN2
370
    18
390
F
  0
LAYER
  5
32
330
2
100
AcDbSymbolTableRecord
100
AcDbLayerTableRecord
  2
1-1点
 70
     0
 62
     3
  6
CENTER2
370
    18
390
F
  0
LAYER
  5
33
330
2
100
AcDbSymbolTableRecord
100
AcDbLayerTableRecord
  2
1-2点
 70
     0
 62
     3
  6
PHANTOM2
370
    18
390
F
  0
LAYER
  5
3A
330
2
100
AcDbSymbolTableRecord
100
AcDbLayerTableRecord
  2
2-1点
 70
     0
 62
     6
  6
CENTER2
370
    18
390
F
  0
LAYER
  5
3B
330
2
100
AcDbSymbolTableRecord
100
AcDbLayerTableRecord
  2
2-2点
 70
     0
 62
     6
  6
PHANTOM2
370
    18
390
F
  0
LAYER
  5
3C
330
2
100
AcDbSymbolTableRecord
100
AcDbLayerTableRecord
  2
2-線
 70
     0
 62
     6
  6
Continuous
370
    18
390
F
  0
LAYER
  5
3D
330
2
100
AcDbSymbolTableRecord
100
AcDbLayerTableRecord
  2
2-破線
 70
     0
 62
     6
  6
HIDDEN2
370
    18
390
F
  0
LAYER
  5
3E
330
2
100
AcDbSymbolTableRecord
100
AcDbLayerTableRecord
  2
3-線
 70
     0
 62
     4
  6
Continuous
370
    35
390
F
  0
LAYER
  5
40
330
2
100
AcDbSymbolTableRecord
100
AcDbLayerTableRecord
  2
4-線
 70
     0
 62
     2
  6
Continuous
370
    35
390
F
  0
LAYER
  5
41
330
2
100
AcDbSymbolTableRecord
100
AcDbLayerTableRecord
  2
5-線
 70
     0
 62
     5
  6
Continuous
370
    35
390
F
  0
LAYER
  5
42
330
2
100
AcDbSymbolTableRecord
100
AcDbLayerTableRecord
  2
5-破線
 70
     0
 62
     5
  6
HIDDEN2
370
    18
390
F
  0
LAYER
  5
43
330
2
100
AcDbSymbolTableRecord
100
AcDbLayerTableRecord
  2
6-線
 70
     0
 62
     1
  6
Continuous
370
    35
390
F
  0
LAYER
  5
44
330
2
100
AcDbSymbolTableRecord
100
AcDbLayerTableRecord
  2
6-破線
 70
     0
 62
     1
  6
HIDDEN2
370
    18
390
F
  0
LAYER
  5
FF
330
2
100
AcDbSymbolTableRecord
100
AcDbLayerTableRecord
  2
4
 70
     0
 62
     6
  6
Continuous
370
    18
390
F
  0
LAYER
  5
1DD
330
2
100
AcDbSymbolTableRecord
100
AcDbLayerTableRecord
  2
Defpoints
 70
     4
 62
     7
  6
Continuous
290
     0
370
    -3
390
F
  0
ENDTAB
  0
TABLE
  2
STYLE
  5
3
330
0
100
AcDbSymbolTable
 70
     3
  0
STYLE
  5
11
330
3
100
AcDbSymbolTableRecord
100
AcDbTextStyleTableRecord
  2
Standard
 70
     0
 40
0.0
 41
1.0
 50
0.0
 71
     0
 42
3.0
  3
txt.shx
  4
bigfont.shx
  0
STYLE
  5
2C
330
3
100
AcDbSymbolTableRecord
100
AcDbTextStyleTableRecord
  2

 70
     1
 40
0.0
 41
1.0
 50
0.0
 71
     0
 42
2.5
  3
ltypeshp.shx
  4

  0
STYLE
  5
9C
330
3
100
AcDbSymbolTableRecord
100
AcDbTextStyleTableRecord
  2
縦
 70
     4
 40
0.0
 41
1.0
 50
0.0
 71
     0
 42
2.799999999999998
  3
txt.shx
  4
bigfont.shx
  0
ENDTAB
  0
TABLE
  2
VIEW
  5
6
330
0
100
AcDbSymbolTable
 70
     1
  0
VIEW
  5
502
330
6
100
AcDbSymbolTableRecord
100
AcDbViewTableRecord
  2
OLE1
 70
     0
 40
233.3949522673788
 10
309.4656970073121
 20
48.01785105749138
 41
232.3911030103148
 11
0.0
 21
0.0
 31
1.0
 12
0.0
 22
0.0
 32
0.0
 42
50.0
 43
0.0
 44
0.0
 50
0.0
 71
     0
281
     0
 72
     0
  0
ENDTAB
  0
TABLE
  2
UCS
  5
7
330
0
100
AcDbSymbolTable
 70
     0
  0
ENDTAB
  0
TABLE
  2
APPID
  5
9
330
0
100
AcDbSymbolTable
 70
     1
  0
APPID
  5
12
330
9
100
AcDbSymbolTableRecord
100
AcDbRegAppTableRecord
  2
ACAD
 70
     0
  0
ENDTAB
  0
TABLE
  2
DIMSTYLE
  5
A
330
0
100
AcDbSymbolTable
 70
     4
100
AcDbDimStyleTable
 71
     1
340
1C8
  0
DIMSTYLE
105
27
330
A
100
AcDbSymbolTableRecord
100
AcDbDimStyleTableRecord
  2
ISO-25
 70
     0
 41
2.5
 42
0.625
 43
3.75
 44
1.25
 73
     0
 74
     0
 77
     1
 78
     8
140
2.5
141
2.5
143
0.03937007874016
147
0.625
171
     3
172
     1
271
     2
272
     2
274
     3
283
     0
284
     8
340
11
  0
DIMSTYLE
105
100
330
A
100
AcDbSymbolTableRecord
100
AcDbDimStyleTableRecord
  2
JIS
 70
     0
 41
2.5
 42
1.0
 43
7.0
 44
1.0
 73
     0
 74
     0
 77
     1
 78
     8
140
2.5
141
0.0
143
0.0394
147
0.0
172
     1
174
     1
175
     1
340
11
  0
DIMSTYLE
105
1C8
330
A
100
AcDbSymbolTableRecord
100
AcDbDimStyleTableRecord
  2
Kyouwa
 70
     0
 41
2.5
 42
0.0
 43
3.75
 44
1.0
 73
     0
 74
     0
 77
     1
 78
     8
140
3.0
141
0.0
143
0.1
146
0.7
147
1.0
171
     3
172
     1
271
     2
272
     2
274
     3
283
     0
284
     8
340
11
341
1C2
342
1C2
  0
DIMSTYLE
105
1DD9
330
A
100
AcDbSymbolTableRecord
100
AcDbDimStyleTableRecord
  2
Standard
 70
     0
340
11
  0
ENDTAB
  0
TABLE
  2
BLOCK_RECORD
  5
1
330
0
100
AcDbSymbolTable
 70
    18
  0
BLOCK_RECORD
  5
1F
102
{ACAD_XDICTIONARY
360
474
102
}
330
1
100
AcDbSymbolTableRecord
100
AcDbBlockTableRecord
  2
*Model_Space
340
22
  0
BLOCK_RECORD
  5
23
102
{ACAD_XDICTIONARY
360
478
102
}
330
1
100
AcDbSymbolTableRecord
100
AcDbBlockTableRecord
  2
*Paper_Space
340
26
  0
BLOCK_RECORD
  5
1B
102
{ACAD_XDICTIONARY
360
476
102
}
330
1
100
AcDbSymbolTableRecord
100
AcDbBlockTableRecord
  2
*Paper_Space0
340
1E
  0
BLOCK_RECORD
  5
101
330
1
100
AcDbSymbolTableRecord
100
AcDbBlockTableRecord
  2
A$C77221E2E
340
0
  0
BLOCK_RECORD
  5
1C2
330
1
100
AcDbSymbolTableRecord
100
AcDbBlockTableRecord
  2
_Open30
340
0
102
{BLKREFS
331
2B10
331
2B11
331
2B24
331
2B25
331
2B36
331
2B37
331
2B70
331
2B71
331
2B94
331
2B95
331
2B9D
331
2B9E
331
2BA6
331
2BA7
331
2BB8
331
2BB9
331
2BCA
331
2BCB
331
2C55
331
2C56
331
2C88
331
2C89
331
2D28
331
2D29
331
2D62
331
2D63
331
2D6F
331
2D70
102
}
  0
BLOCK_RECORD
  5
504
330
1
100
AcDbSymbolTableRecord
100
AcDbBlockTableRecord
  2
A$C56C037E7
340
0
  0
BLOCK_RECORD
  5
2919
330
1
100
AcDbSymbolTableRecord
100
AcDbBlockTableRecord
  2
*D4
340
0
  0
BLOCK_RECORD
  5
2925
330
1
100
AcDbSymbolTableRecord
100
AcDbBlockTableRecord
  2
*D5
340
0
  0
BLOCK_RECORD
  5
2931
330
1
100
AcDbSymbolTableRecord
100
AcDbBlockTableRecord
  2
*D6
340
0
  0
BLOCK_RECORD
  5
293D
330
1
100
AcDbSymbolTableRecord
100
AcDbBlockTableRecord
  2
*D7
340
0
  0
BLOCK_RECORD
  5
2949
330
1
100
AcDbSymbolTableRecord
100
AcDbBlockTableRecord
  2
*D8
340
0
  0
BLOCK_RECORD
  5
2955
330
1
100
AcDbSymbolTableRecord
100
AcDbBlockTableRecord
  2
*D9
340
0
  0
BLOCK_RECORD
  5
296F
330
1
100
AcDbSymbolTableRecord
100
AcDbBlockTableRecord
  2
*D10
340
0
  0
BLOCK_RECORD
  5
297D
330
1
100
AcDbSymbolTableRecord
100
AcDbBlockTableRecord
  2
*D11
340
0
  0
BLOCK_RECORD
  5
2A32
330
1
100
AcDbSymbolTableRecord
100
AcDbBlockTableRecord
  2
*D12
340
0
  0
BLOCK_RECORD
  5
2B4F
330
1
100
AcDbSymbolTableRecord
100
AcDbBlockTableRecord
  2
*D13
340
0
  0
BLOCK_RECORD
  5
2BF2
330
1
100
AcDbSymbolTableRecord
100
AcDbBlockTableRecord
  2
*D14
340
0
  0
BLOCK_RECORD
  5
2BFE
330
1
100
AcDbSymbolTableRecord
100
AcDbBlockTableRecord
  2
*D15
340
0
  0
BLOCK_RECORD
  5
2D5E
330
1
100
AcDbSymbolTableRecord
100
AcDbBlockTableRecord
  2
*D16
340
0
  0
BLOCK_RECORD
  5
2D6B
330
1
100
AcDbSymbolTableRecord
100
AcDbBlockTableRecord
  2
*D17
340
0
  0
ENDTAB
  0
ENDSEC
  0
SECTION
  2
BLOCKS
  0
BLOCK
  5
20
330
1F
100
AcDbEntity
  8
0
100
AcDbBlockBegin
  2
*Model_Space
 70
     0
 10
0.0
 20
0.0
 30
0.0
  3
*Model_Space
  1

  0
ENDBLK
  5
21
330
1F
100
AcDbEntity
  8
0
100
AcDbBlockEnd
  0
BLOCK
  5
24
330
23
100
AcDbEntity
 67
     1
  8
0
100
AcDbBlockBegin
  2
*Paper_Space
 70
     0
 10
0.0
 20
0.0
 30
0.0
  3
*Paper_Space
  1

  0
ENDBLK
  5
25
330
23
100
AcDbEntity
 67
     1
  8
0
100
AcDbBlockEnd
  0
BLOCK
  5
1C
330
1B
100
AcDbEntity
  8
0
100
AcDbBlockBegin
  2
*Paper_Space0
 70
     0
 10
0.0
 20
0.0
 30
0.0
  3
*Paper_Space0
  1

  0
ENDBLK
  5
1D
330
1B
100
AcDbEntity
  8
0
100
AcDbBlockEnd
  0
BLOCK
  5
10C
330
101
100
AcDbEntity
  8
0
100
AcDbBlockBegin
  2
A$C77221E2E
 70
     0
 10
0.0
 20
0.0
 30
0.0
  3
A$C77221E2E
  1

  0
TEXT
  5
102
330
101
100
AcDbEntity
  8
4
  6
CENTER
100
AcDbText
 10
-1.383100251097403
 20
-4.957558222773966
 30
0.0
 40
5.5
  1
0
 50
90.0
100
AcDbText
  0
TEXT
  5
103
330
101
100
AcDbEntity
  8
4
  6
CENTER
100
AcDbText
 10
-1.383100251097403
 20
-10.95755822277397
 30
0.0
 40
5.5
  1
9
 50
90.0
100
AcDbText
  0
TEXT
  5
104
330
101
100
AcDbEntity
  8
4
  6
CENTER
100
AcDbText
 10
-1.383100251097403
 20
-16.95755822277397
 30
0.0
 40
5.5
  1
8
 50
90.0
100
AcDbText
  0
TEXT
  5
105
330
101
100
AcDbEntity
  8
4
  6
CENTER
100
AcDbText
 10
-1.383100251097403
 20
-22.95755822277397
 30
0.0
 40
5.5
  1
7
 50
90.0
100
AcDbText
  0
TEXT
  5
106
330
101
100
AcDbEntity
  8
4
  6
CENTER
100
AcDbText
 10
-1.383100251097403
 20
-28.95755822277397
 30
0.0
 40
5.5
  1
6
 50
90.0
100
AcDbText
  0
TEXT
  5
107
330
101
100
AcDbEntity
  8
4
  6
CENTER
100
AcDbText
 10
-1.383100251097403
 20
-34.95755822277397
 30
0.0
 40
5.5
  1
5
 50
90.0
100
AcDbText
  0
TEXT
  5
108
330
101
100
AcDbEntity
  8
4
  6
CENTER
100
AcDbText
 10
-1.383100251097403
 20
-40.95755822277395
 30
0.0
 40
5.5
  1
4
 50
90.0
100
AcDbText
  0
TEXT
  5
109
330
101
100
AcDbEntity
  8
4
  6
CENTER
100
AcDbText
 10
-1.383100251097403
 20
-46.95755822277397
 30
0.0
 40
5.5
  1
3
 50
90.0
100
AcDbText
  0
TEXT
  5
10A
330
101
100
AcDbEntity
  8
4
  6
CENTER
100
AcDbText
 10
-1.383100251097403
 20
-52.95755822277397
 30
0.0
 40
5.5
  1
2
 50
90.0
100
AcDbText
  0
TEXT
  5
10B
330
101
100
AcDbEntity
  8
4
  6
CENTER
100
AcDbText
 10
-1.383100251097403
 20
-58.95755822277397
 30
0.0
 40
5.5
  1
1
 50
90.0
100
AcDbText
  0
ENDBLK
  5
10D
330
101
100
AcDbEntity
  8
0
100
AcDbBlockEnd
  0
BLOCK
  5
1C6
330
1C2
100
AcDbEntity
  8
0
100
AcDbBlockBegin
  2
_Open30
 70
     0
 10
0.0
 20
0.0
 30
0.0
  3
_Open30
  1

  0
LINE
  5
1C3
330
1C2
100
AcDbEntity
  8
0
  6
ByBlock
 62
     0
370
    -2
100
AcDbLine
 10
-1.0
 20
0.26794919
 30
0.0
 11
0.0
 21
0.0
 31
0.0
  0
LINE
  5
1C4
330
1C2
100
AcDbEntity
  8
0
  6
ByBlock
 62
     0
370
    -2
100
AcDbLine
 10
0.0
 20
0.0
 30
0.0
 11
-1.0
 21
-0.26794919
 31
0.0
  0
LINE
  5
1C5
330
1C2
100
AcDbEntity
  8
0
  6
ByBlock
 62
     0
370
    -2
100
AcDbLine
 10
0.0
 20
0.0
 30
0.0
 11
-1.0
 21
0.0
 31
0.0
  0
ENDBLK
  5
1C7
330
1C2
100
AcDbEntity
  8
0
100
AcDbBlockEnd
  0
BLOCK
  5
5AA
330
504
100
AcDbEntity
  8
0
100
AcDbBlockBegin
  2
A$C56C037E7
 70
     0
 10
0.0
 20
0.0
 30
0.0
  3
A$C56C037E7
  1

  0
LINE
  5
505
330
504
100
AcDbEntity
  8
0
100
AcDbLine
 10
420.0
 20
0.0
 30
0.0
 11
410.0
 21
0.0
 31
0.0
  0
LINE
  5
506
330
504
100
AcDbEntity
  8
0
100
AcDbLine
 10
0.0
 20
297.0
 30
0.0
 11
0.0
 21
287.0
 31
0.0
  0
LINE
  5
507
330
504
100
AcDbEntity
  8
0
100
AcDbLine
 10
420.0
 20
297.0
 30
0.0
 11
420.0
 21
287.0
 31
0.0
  0
LINE
  5
508
330
504
100
AcDbEntity
  8
0
100
AcDbLine
 10
0.0
 20
297.0
 30
0.0
 11
25.0
 21
297.0
 31
0.0
  0
LINE
  5
509
330
504
100
AcDbEntity
  8
3-線
 62
     4
100
AcDbLine
 10
26.0
 20
287.0
 30
0.0
 11
410.0
 21
287.0
 31
0.0
  0
LINE
  5
50A
330
504
100
AcDbEntity
  8
3-線
100
AcDbLine
 10
26.0
 20
287.0
 30
0.0
 11
26.0
 21
10.0
 31
0.0
  0
LINE
  5
50B
330
504
100
AcDbEntity
  8
3-線
100
AcDbLine
 10
26.0
 20
10.0
 30
0.0
 11
410.0
 21
10.0
 31
0.0
  0
LINE
  5
50C
330
504
100
AcDbEntity
  8
3-線
100
AcDbLine
 10
410.0
 20
287.0
 30
0.0
 11
410.0
 21
10.0
 31
0.0
  0
LINE
  5
50D
330
504
100
AcDbEntity
  8
0
100
AcDbLine
 10
410.0
 20
297.0
 30
0.0
 11
420.0
 21
297.0
 31
0.0
  0
LINE
  5
50E
330
504
100
AcDbEntity
  8
0
100
AcDbLine
 10
420.0
 20
10.0
 30
0.0
 11
420.0
 21
0.0
 31
0.0
  0
LINE
  5
50F
330
504
100
AcDbEntity
  8
0
100
AcDbLine
 10
15.0
 20
0.0
 30
0.0
 11
0.0
 21
0.0
 31
0.0
  0
LINE
  5
510
330
504
100
AcDbEntity
  8
0
100
AcDbLine
 10
0.0
 20
10.0
 30
0.0
 11
0.0
 21
0.0
 31
0.0
  0
LINE
  5
511
330
504
100
AcDbEntity
  8
3-線
 62
     4
100
AcDbLine
 10
364.0
 20
254.5
 30
0.0
 11
410.0
 21
254.5
 31
0.0
  0
LINE
  5
512
330
504
100
AcDbEntity
  8
3-線
100
AcDbLine
 10
364.0
 20
287.0
 30
0.0
 11
364.0
 21
254.5
 31
0.0
  0
LINE
  5
513
330
504
100
AcDbEntity
  8
3-線
100
AcDbLine
 10
402.0
 20
254.5
 30
0.0
 11
402.0
 21
194.5
 31
0.0
  0
LINE
  5
514
330
504
100
AcDbEntity
  8
3-線
 62
     4
100
AcDbLine
 10
402.0
 20
194.5
 30
0.0
 11
410.0
 21
194.5
 31
0.0
  0
LINE
  5
515
330
504
100
AcDbEntity
  8
3-線
 62
     4
100
AcDbLine
 10
402.0
 20
200.5
 30
0.0
 11
410.0
 21
200.5
 31
0.0
  0
LINE
  5
516
330
504
100
AcDbEntity
  8
3-線
 62
     4
100
AcDbLine
 10
402.0
 20
206.5
 30
0.0
 11
410.0
 21
206.5
 31
0.0
  0
LINE
  5
517
330
504
100
AcDbEntity
  8
3-線
 62
     4
100
AcDbLine
 10
402.0
 20
212.5
 30
0.0
 11
410.0
 21
212.5
 31
0.0
  0
LINE
  5
518
330
504
100
AcDbEntity
  8
3-線
 62
     4
100
AcDbLine
 10
402.0
 20
218.5
 30
0.0
 11
410.0
 21
218.5
 31
0.0
  0
LINE
  5
519
330
504
100
AcDbEntity
  8
3-線
 62
     4
100
AcDbLine
 10
402.0
 20
224.5
 30
0.0
 11
410.0
 21
224.5
 31
0.0
  0
LINE
  5
51A
330
504
100
AcDbEntity
  8
3-線
 62
     4
100
AcDbLine
 10
402.0
 20
230.5
 30
0.0
 11
410.0
 21
230.5
 31
0.0
  0
LINE
  5
51B
330
504
100
AcDbEntity
  8
3-線
 62
     4
100
AcDbLine
 10
402.0
 20
236.5
 30
0.0
 11
410.0
 21
236.5
 31
0.0
  0
LINE
  5
51C
330
504
100
AcDbEntity
  8
3-線
 62
     4
100
AcDbLine
 10
402.0
 20
242.5
 30
0.0
 11
410.0
 21
242.5
 31
0.0
  0
LINE
  5
51D
330
504
100
AcDbEntity
  8
3-線
 62
     4
100
AcDbLine
 10
402.0
 20
248.5
 30
0.0
 11
410.0
 21
248.5
 31
0.0
  0
LINE
  5
51E
330
504
100
AcDbEntity
  8
2-線
100
AcDbLine
 10
370.0
 20
287.0
 30
0.0
 11
370.0
 21
254.5
 31
0.0
  0
LINE
  5
51F
330
504
100
AcDbEntity
  8
2-線
100
AcDbLine
 10
397.8
 20
287.0
 30
0.0
 11
397.8
 21
254.5
 31
0.0
  0
LINE
  5
520
330
504
100
AcDbEntity
  8
2-線
100
AcDbLine
 10
370.0
 20
280.05
 30
0.0
 11
410.0
 21
280.05
 31
0.0
  0
LINE
  5
521
330
504
100
AcDbEntity
  8
2-線
100
AcDbLine
 10
41.0
 20
287.0
 30
0.0
 11
41.0
 21
269.0
 31
0.0
  0
LINE
  5
522
330
504
100
AcDbEntity
  8
2-線
100
AcDbLine
 10
81.0
 20
287.0
 30
0.0
 11
81.0
 21
269.0
 31
0.0
  0
LINE
  5
523
330
504
100
AcDbEntity
  8
2-線
100
AcDbLine
 10
26.0
 20
269.0
 30
0.0
 11
136.0
 21
269.0
 31
0.0
  0
LINE
  5
524
330
504
100
AcDbEntity
  8
2-線
100
AcDbLine
 10
96.0
 20
287.0
 30
0.0
 11
96.0
 21
269.0
 31
0.0
  0
LINE
  5
525
330
504
100
AcDbEntity
  8
2-線
100
AcDbLine
 10
136.0
 20
287.0
 30
0.0
 11
136.0
 21
269.0
 31
0.0
  0
LINE
  5
526
330
504
100
AcDbEntity
  8
2-線
100
AcDbLine
 10
36.0
 20
22.0
 30
0.0
 11
36.0
 21
10.0
 31
0.0
  0
LINE
  5
527
330
504
100
AcDbEntity
  8
2-線
100
AcDbLine
 10
51.0
 20
22.0
 30
0.0
 11
51.0
 21
10.0
 31
0.0
  0
LINE
  5
528
330
504
100
AcDbEntity
  8
2-線
100
AcDbLine
 10
61.0
 20
22.0
 30
0.0
 11
61.0
 21
10.0
 31
0.0
  0
LINE
  5
529
330
504
100
AcDbEntity
  8
2-線
100
AcDbLine
 10
111.0
 20
22.0
 30
0.0
 11
111.0
 21
10.0
 31
0.0
  0
LINE
  5
52A
330
504
100
AcDbEntity
  8
2-線
100
AcDbLine
 10
26.0
 20
16.0
 30
0.0
 11
111.0
 21
16.0
 31
0.0
  0
LINE
  5
52B
330
504
100
AcDbEntity
  8
2-線
100
AcDbLine
 10
26.0
 20
22.0
 30
0.0
 11
111.0
 21
22.0
 31
0.0
  0
LINE
  5
52C
330
504
100
AcDbEntity
  8
2-線
100
AcDbLine
 10
207.0
 20
22.0
 30
0.0
 11
410.0
 21
22.0
 31
0.0
  0
LINE
  5
52D
330
504
100
AcDbEntity
  8
2-線
100
AcDbLine
 10
207.0
 20
34.0
 30
0.0
 11
410.0
 21
34.0
 31
0.0
  0
LINE
  5
52E
330
504
100
AcDbEntity
  8
2-線
100
AcDbLine
 10
247.0
 20
40.0
 30
0.0
 11
410.0
 21
40.0
 31
0.0
  0
LINE
  5
52F
330
504
100
AcDbEntity
  8
2-線
100
AcDbLine
 10
247.0
 20
46.0
 30
0.0
 11
410.0
 21
46.0
 31
0.0
  0
LINE
  5
530
330
504
100
AcDbEntity
  8
2-線
100
AcDbLine
 10
247.0
 20
76.0
 30
0.0
 11
247.0
 21
34.0
 31
0.0
  0
LINE
  5
531
330
504
100
AcDbEntity
  8
2-線
100
AcDbLine
 10
280.0
 20
34.0
 30
0.0
 11
280.0
 21
22.0
 31
0.0
  0
LINE
  5
532
330
504
100
AcDbEntity
  8
2-線
100
AcDbLine
 10
295.0
 20
34.0
 30
0.0
 11
295.0
 21
10.0
 31
0.0
  0
LINE
  5
533
330
504
100
AcDbEntity
  8
2-線
100
AcDbLine
 10
300.0
 20
34.0
 30
0.0
 11
300.0
 21
10.0
 31
0.0
  0
LINE
  5
534
330
504
100
AcDbEntity
  8
2-線
100
AcDbLine
 10
257.0
 20
76.0
 30
0.0
 11
257.0
 21
34.0
 31
0.0
  0
LINE
  5
535
330
504
100
AcDbEntity
  8
2-線
100
AcDbLine
 10
345.0
 20
34.0
 30
0.0
 11
345.0
 21
10.0
 31
0.0
  0
LINE
  5
536
330
504
100
AcDbEntity
  8
2-線
100
AcDbLine
 10
350.0
 20
34.0
 30
0.0
 11
350.0
 21
10.0
 31
0.0
  0
LINE
  5
537
330
504
100
AcDbEntity
  8
2-線
100
AcDbLine
 10
307.0
 20
76.0
 30
0.0
 11
307.0
 21
34.0
 31
0.0
  0
LINE
  5
538
330
504
100
AcDbEntity
  8
2-線
100
AcDbLine
 10
340.0
 20
76.00000000000003
 30
0.0
 11
340.0
 21
34.0
 31
0.0
  0
LINE
  5
539
330
504
100
AcDbEntity
  8
2-線
100
AcDbLine
 10
355.0
 20
76.0
 30
0.0
 11
355.0
 21
34.0
 31
0.0
  0
LINE
  5
53A
330
504
100
AcDbEntity
  8
2-線
100
AcDbLine
 10
375.0
 20
76.00000000000003
 30
0.0
 11
375.0
 21
34.0
 31
0.0
  0
TEXT
  5
53B
330
504
100
AcDbEntity
  8
2-線
100
AcDbText
 10
367.0
 20
285.59
 30
0.0
 40
2.799999999999998
  1
削り加工部一般公差
 41
1.199999999999999
  7
縦
 72
     4
 11
367.0
 21
270.75
 31
0.0
100
AcDbText
  0
TEXT
  5
53C
330
504
100
AcDbEntity
  8
2-線
100
AcDbText
 10
372.676
 20
284.1125000000001
 30
0.0
 40
2.299999999999998
  1
呼び寸法ノ区分
 41
1.199999999999999
 72
     4
 11
383.9
 21
285.2625000000001
 31
0.0
100
AcDbText
  0
TEXT
  5
53D
330
504
100
AcDbEntity
  8
2-線
100
AcDbText
 10
374.424
 20
280.6375
 30
0.0
 40
2.299999999999998
  1
単位　　ｍｍ
 41
1.199999999999999
 72
     4
 11
383.9
 21
281.7875
 31
0.0
100
AcDbText
  0
TEXT
  5
53E
330
504
100
AcDbEntity
  8
2-線
100
AcDbText
 10
401.2166666666665
 20
284.1125000000001
 30
0.0
 40
2.299999999999998
  1
JIS
 72
     4
 11
403.8999999999998
 21
285.2625000000001
 31
0.0
100
AcDbText
  0
TEXT
  5
53F
330
504
100
AcDbEntity
  8
2-線
100
AcDbText
 10
398.7633333333332
 20
280.6375
 30
0.0
 40
2.299999999999998
  1
（中級）
 72
     4
 11
403.8999999999998
 21
281.7875
 31
0.0
100
AcDbText
  0
TEXT
  5
540
330
504
100
AcDbEntity
  8
2-線
100
AcDbText
 10
370.5
 20
255.175
 30
0.0
 40
2.299999999999998
  1
１０００を超え２０００以下
 41
0.75
 11
370.5
 21
256.325
 31
0.0
100
AcDbText
 73
     2
  0
TEXT
  5
541
330
504
100
AcDbEntity
  8
2-線
100
AcDbText
 10
399.2079999999999
 20
255.175
 30
0.0
 40
2.299999999999998
  1
±１．２
 41
0.9
 72
     1
 11
403.8999999999998
 21
256.325
 31
0.0
100
AcDbText
 73
     2
  0
TEXT
  5
542
330
504
100
AcDbEntity
  8
2-線
100
AcDbText
 10
408.75
 20
250.125
 30
0.0
 40
5.5
  1
0
 50
90.0
 72
     4
 11
406.0
 21
251.5
 31
0.0
100
AcDbText
  0
TEXT
  5
543
330
504
100
AcDbEntity
  8
2-線
100
AcDbText
 10
408.75
 20
243.6666666666666
 30
0.0
 40
5.5
  1
9
 50
90.0
 72
     4
 11
406.0
 21
245.5
 31
0.0
100
AcDbText
  0
TEXT
  5
544
330
504
100
AcDbEntity
  8
2-線
100
AcDbText
 10
408.75
 20
237.6666666666666
 30
0.0
 40
5.5
  1
8
 50
90.0
 72
     4
 11
406.0
 21
239.5
 31
0.0
100
AcDbText
  0
TEXT
  5
545
330
504
100
AcDbEntity
  8
2-線
100
AcDbText
 10
408.75
 20
231.6666666666666
 30
0.0
 40
5.5
  1
7
 50
90.0
 72
     4
 11
406.0
 21
233.5
 31
0.0
100
AcDbText
  0
TEXT
  5
546
330
504
100
AcDbEntity
  8
2-線
100
AcDbText
 10
408.75
 20
225.6666666666667
 30
0.0
 40
5.5
  1
6
 50
90.0
 72
     4
 11
406.0
 21
227.5
 31
0.0
100
AcDbText
  0
TEXT
  5
547
330
504
100
AcDbEntity
  8
2-線
100
AcDbText
 10
408.75
 20
219.6666666666667
 30
0.0
 40
5.5
  1
5
 50
90.0
 72
     4
 11
406.0
 21
221.5
 31
0.0
100
AcDbText
  0
TEXT
  5
548
330
504
100
AcDbEntity
  8
2-線
100
AcDbText
 10
408.75
 20
213.6666666666667
 30
0.0
 40
5.5
  1
4
 50
90.0
 72
     4
 11
406.0
 21
215.5
 31
0.0
100
AcDbText
  0
TEXT
  5
549
330
504
100
AcDbEntity
  8
2-線
100
AcDbText
 10
408.75
 20
207.6666666666667
 30
0.0
 40
5.5
  1
3
 50
90.0
 72
     4
 11
406.0
 21
209.5
 31
0.0
100
AcDbText
  0
TEXT
  5
54A
330
504
100
AcDbEntity
  8
2-線
100
AcDbText
 10
408.75
 20
201.6666666666667
 30
0.0
 40
5.5
  1
2
 50
90.0
 72
     4
 11
406.0
 21
203.5
 31
0.0
100
AcDbText
  0
TEXT
  5
54B
330
504
100
AcDbEntity
  8
2-線
100
AcDbText
 10
408.75
 20
196.5833333333333
 30
0.0
 40
5.5
  1
1
 50
90.0
 72
     4
 11
406.0
 21
197.5
 31
0.0
100
AcDbText
  0
TEXT
  5
54C
330
504
100
AcDbEntity
  8
2-線
100
AcDbText
 10
31.63333333333333
 20
280.5000000000001
 30
0.0
 40
4.0
  1
熱
 72
     4
 11
33.5
 21
282.5000000000001
 31
0.0
100
AcDbText
  0
TEXT
  5
54D
330
504
100
AcDbEntity
  8
2-線
100
AcDbText
 10
28.63333333333333
 20
271.5000000000001
 30
0.0
 40
4.0
  1
処
 72
     4
 11
30.5
 21
273.5000000000001
 31
0.0
100
AcDbText
  0
TEXT
  5
54E
330
504
100
AcDbEntity
  8
2-線
100
AcDbText
 10
34.63333333333333
 20
271.6333333333334
 30
0.0
 40
4.0
  1
理
 72
     4
 11
36.5
 21
273.5000000000001
 31
0.0
100
AcDbText
  0
TEXT
  5
54F
330
504
100
AcDbEntity
  8
2-線
100
AcDbText
 10
83.63333333333335
 20
271.5000000000001
 30
0.0
 40
4.0
  1
処
 72
     4
 11
85.5
 21
273.5000000000001
 31
0.0
100
AcDbText
  0
TEXT
  5
550
330
504
100
AcDbEntity
  8
2-線
100
AcDbText
 10
89.63333333333334
 20
271.6333333333334
 30
0.0
 40
4.0
  1
理
 72
     4
 11
91.5
 21
273.5000000000001
 31
0.0
100
AcDbText
  0
TEXT
  5
551
330
504
100
AcDbEntity
  8
2-線
100
AcDbText
 10
83.63333333333335
 20
280.4999999999999
 30
0.0
 40
4.0
  1
表
 72
     4
 11
85.50000000000002
 21
282.4999999999999
 31
0.0
100
AcDbText
  0
TEXT
  5
552
330
504
100
AcDbEntity
  8
2-線
100
AcDbText
 10
89.63333333333338
 20
280.6333333333332
 30
0.0
 40
4.0
  1
面
 72
     4
 11
91.50000000000003
 21
282.4999999999999
 31
0.0
100
AcDbText
  0
TEXT
  5
553
330
504
100
AcDbEntity
  8
2-線
100
AcDbText
 10
27.8
 20
11.5
 30
0.0
 40
3.0
  1
符号
 72
     4
 11
31.0
 21
13.0
 31
0.0
100
AcDbText
  0
TEXT
  5
554
330
504
100
AcDbEntity
  8
2-線
100
AcDbText
 10
38.7
 20
11.5
 30
0.0
 40
3.0
  1
年月日
 72
     4
 11
43.5
 21
13.0
 31
0.0
100
AcDbText
  0
TEXT
  5
555
330
504
100
AcDbEntity
  8
2-線
100
AcDbText
 10
52.9
 20
11.5
 30
0.0
 40
3.0
  1
担当
 72
     4
 11
56.0
 21
13.0
 31
0.0
100
AcDbText
  0
TEXT
  5
556
330
504
100
AcDbEntity
  8
2-線
100
AcDbText
 10
73.79999999999999
 20
11.5
 30
0.0
 40
3.0
  1
改　正　記　事
 72
     4
 11
86.0
 21
13.0
 31
0.0
100
AcDbText
  0
TEXT
  5
557
330
504
100
AcDbEntity
  8
3-線
100
AcDbText
 10
213.4333333333334
 20
12.5
 30
0.0
 40
7.0
  1
協和工業株式会社
 41
1.149999999999999
 72
     4
 11
251.0
 21
16.0
 31
0.0
100
AcDbText
  0
TEXT
  5
558
330
504
100
AcDbEntity
  8
2-線
100
AcDbText
 10
248.08
 20
29.6
 30
0.0
 40
3.0
  1
Ｍ．Ｙ
 41
0.8
 72
     4
 11
252.0
 21
31.0
 31
0.0
100
AcDbText
  0
TEXT
  5
559
330
504
100
AcDbEntity
  8
2-線
100
AcDbText
 10
246.56
 20
23.6
 30
0.0
 40
3.0
  1
０１，０８，０１
 41
0.4
 72
     4
 11
252.0
 21
25.0
 31
0.0
100
AcDbText
  0
TEXT
  5
55A
330
504
100
AcDbEntity
  8
2-線
100
AcDbText
 10
265.8
 20
26.0
 30
0.0
 40
4.0
  1
1:1
 41
1.199999999999999
 72
     4
 11
269.0
 21
28.0
 31
0.0
100
AcDbText
  0
TEXT
  5
55B
330
504
100
AcDbEntity
  8
2-線
100
AcDbText
 10
282.5
 20
26.5
 30
0.0
 40
3.0
  1
三角法
 72
     4
 11
287.5
 21
28.0
 31
0.0
100
AcDbText
  0
TEXT
  5
55C
330
504
100
AcDbEntity
  8
2-線
100
AcDbText
 10
247.9
 20
35.6
 30
0.0
 40
3.0
  1
Ｎｏ．
 72
     4
 11
252.0
 21
37.0
 31
0.0
100
AcDbText
  0
LINE
  5
55D
330
504
100
AcDbEntity
  8
2-線
100
AcDbLine
 10
275.0
 20
34.0
 30
0.0
 11
275.0
 21
22.0
 31
0.0
  0
LINE
  5
55E
330
504
100
AcDbEntity
  8
2-線
100
AcDbLine
 10
263.0
 20
34.0
 30
0.0
 11
263.0
 21
22.0
 31
0.0
  0
LINE
  5
55F
330
504
100
AcDbEntity
  8
2-線
100
AcDbLine
 10
258.0
 20
34.0
 30
0.0
 11
258.0
 21
22.0
 31
0.0
  0
LINE
  5
560
330
504
100
AcDbEntity
  8
2-線
100
AcDbLine
 10
246.0
 20
34.0
 30
0.0
 11
246.0
 21
22.0
 31
0.0
  0
LINE
  5
561
330
504
100
AcDbEntity
  8
2-線
100
AcDbLine
 10
241.0
 20
34.0
 30
0.0
 11
241.0
 21
22.0
 31
0.0
  0
LINE
  5
562
330
504
100
AcDbEntity
  8
2-線
100
AcDbLine
 10
229.0
 20
34.0
 30
0.0
 11
229.0
 21
22.0
 31
0.0
  0
LINE
  5
563
330
504
100
AcDbEntity
  8
2-線
100
AcDbLine
 10
224.0
 20
34.0
 30
0.0
 11
224.0
 21
22.0
 31
0.0
  0
LINE
  5
564
330
504
100
AcDbEntity
  8
2-線
100
AcDbLine
 10
212.0
 20
34.0
 30
0.0
 11
212.0
 21
22.0
 31
0.0
  0
LINE
  5
565
330
504
100
AcDbEntity
  8
2-線
100
AcDbLine
 10
207.0
 20
34.0
 30
0.0
 11
207.0
 21
10.0
 31
0.0
  0
TEXT
  5
566
330
504
100
AcDbEntity
  8
2-線
100
AcDbText
 10
302.0
 20
26.25
 30
0.0
 40
3.5
  1
  トキコ（株）   殿
 11
302.0
 21
28.0
 31
0.0
100
AcDbText
 73
     2
  0
TEXT
  5
567
330
504
100
AcDbEntity
  8
2-線
100
AcDbText
 10
273.3
 20
35.5
 30
0.0
 40
3.0
  1
図　　　番
 72
     4
 11
282.0
 21
37.0
 31
0.0
100
AcDbText
  0
TEXT
  5
568
330
504
100
AcDbEntity
  8
2-線
100
AcDbText
 10
316.8
 20
35.5
 30
0.0
 40
3.0
  1
品　　名
 72
     4
 11
323.5
 21
37.0
 31
0.0
100
AcDbText
  0
TEXT
  5
569
330
504
100
AcDbEntity
  8
2-線
100
AcDbText
 10
344.3
 20
35.5
 30
0.0
 40
3.0
  1
個数
 72
     4
 11
347.5
 21
37.0
 31
0.0
100
AcDbText
  0
TEXT
  5
56A
330
504
100
AcDbEntity
  8
2-線
100
AcDbText
 10
360.0
 20
35.5
 30
0.0
 40
3.0
  1
材　質
 72
     4
 11
365.0
 21
37.0
 31
0.0
100
AcDbText
  0
TEXT
  5
56B
330
504
100
AcDbEntity
  8
2-線
100
AcDbText
 10
383.9
 20
35.5
 30
0.0
 40
3.0
  1
備　　　考
 72
     4
 11
392.5
 21
37.0
 31
0.0
100
AcDbText
  0
TEXT
  5
56C
330
504
100
AcDbEntity
  8
2-線
100
AcDbText
 10
352.0
 20
29.25
 30
0.0
 40
3.5
  1
 ８型　中間軸付き
 11
352.0
 21
31.0
 31
0.0
100
AcDbText
 73
     2
  0
TEXT
  5
56D
330
504
100
AcDbEntity
  8
2-線
100
AcDbText
 10
352.0
 20
23.25
 30
0.0
 40
3.5
  1
ユニバーサル･ジョイント
 11
352.0
 21
25.0
 31
0.0
100
AcDbText
 73
     2
  0
TEXT
  5
56E
330
504
100
AcDbEntity
  8
2-線
100
AcDbText
 10
352.0
 20
14.0
 30
0.0
 40
4.0
  1
ＳＰ－０８－００Ｃ－００
 41
0.85
 11
352.0
 21
16.0
 31
0.0
100
AcDbText
 73
     2
  0
TEXT
  5
56F
330
504
100
AcDbEntity
  8
2-線
100
AcDbText
 10
340.6
 20
41.5
 30
0.0
 40
3.0
  1
１ｓｅｔ
 72
     4
 11
347.5
 21
43.0
 31
0.0
100
AcDbText
  0
TEXT
  5
570
330
504
100
AcDbEntity
  8
2-線
100
AcDbText
 10
250.7
 20
41.5
 30
0.0
 40
3.0
  1
１
 72
     4
 11
252.0
 21
43.0
 31
0.0
100
AcDbText
  0
TEXT
  5
571
330
504
100
AcDbEntity
  8
2-線
100
AcDbText
 10
259.0
 20
41.5
 30
0.0
 40
3.0
  1
ＳＣ－０８－００Ｃ
 41
0.9
 11
259.0
 21
43.0
 31
0.0
100
AcDbText
 73
     2
  0
TEXT
  5
572
330
504
100
AcDbEntity
  8
2-線
100
AcDbText
 10
309.0
 20
41.5
 30
0.0
 40
3.0
  1
Ｕ．ジョイント
 41
0.9
 11
309.0
 21
43.0
 31
0.0
100
AcDbText
 73
     2
  0
TEXT
  5
573
330
504
100
AcDbEntity
  8
2-線
100
AcDbText
 10
357.0
 20
41.5
 30
0.0
 40
3.0
  1
ＳＣＭ４１５
 41
0.8
 11
357.0
 21
43.0
 31
0.0
100
AcDbText
 73
     2
  0
TEXT
  5
574
330
504
100
AcDbEntity
  8
2-線
100
AcDbText
 10
377.0
 20
41.5
 30
0.0
 40
3.0
  1
浸炭焼き入れ
 11
377.0
 21
43.0
 31
0.0
100
AcDbText
 73
     2
  0
TEXT
  5
575
330
504
100
AcDbEntity
  8
2-線
100
AcDbText
 10
277.5
 20
32.76
 30
0.0
 40
2.799999999999998
  1
投影法
 41
0.9
  7
縦
 72
     4
 11
277.5
 21
28.0
 31
0.0
100
AcDbText
  0
TEXT
  5
576
330
504
100
AcDbEntity
  8
2-線
100
AcDbText
 10
226.5
 20
32.76
 30
0.0
 40
2.799999999999998
  1
検　図
 41
0.9
  7
縦
 72
     4
 11
226.5
 21
28.0
 31
0.0
100
AcDbText
  0
TEXT
  5
577
330
504
100
AcDbEntity
  8
2-線
100
AcDbText
 10
243.5
 20
32.76
 30
0.0
 40
2.799999999999998
  1
製　図
 41
0.9
  7
縦
 72
     4
 11
243.5
 21
28.0
 31
0.0
100
AcDbText
  0
TEXT
  5
578
330
504
100
AcDbEntity
  8
2-線
100
AcDbText
 10
260.5
 20
32.85333333333333
 30
0.0
 40
2.799999999999998
  1
尺　度
 41
0.9
  7
縦
 72
     4
 11
260.5
 21
28.0
 31
0.0
100
AcDbText
  0
TEXT
  5
579
330
504
100
AcDbEntity
  8
2-線
100
AcDbText
 10
297.5
 20
32.76
 30
0.0
 40
2.799999999999998
  1
客　先
 41
0.9
  7
縦
 72
     4
 11
297.5
 21
28.0
 31
0.0
100
AcDbText
  0
TEXT
  5
57A
330
504
100
AcDbEntity
  8
2-線
100
AcDbText
 10
297.5
 20
20.76
 30
0.0
 40
2.799999999999998
  1
整　番
 41
0.9
  7
縦
 72
     4
 11
297.5
 21
16.0
 31
0.0
100
AcDbText
  0
TEXT
  5
57B
330
504
100
AcDbEntity
  8
2-線
100
AcDbText
 10
347.5
 20
32.76
 30
0.0
 40
2.799999999999998
  1
名　称
 41
0.9
  7
縦
 72
     4
 11
347.5
 21
28.0
 31
0.0
100
AcDbText
  0
TEXT
  5
57C
330
504
100
AcDbEntity
  8
2-線
100
AcDbText
 10
347.5
 20
20.85333333333333
 30
0.0
 40
2.799999999999998
  1
図　番
 41
0.9
  7
縦
 72
     4
 11
347.5
 21
16.0
 31
0.0
100
AcDbText
  0
TEXT
  5
57D
330
504
100
AcDbEntity
  8
2-線
100
AcDbText
 10
209.5
 20
32.76
 30
0.0
 40
2.799999999999998
  1
認　可
 41
0.9
  7
縦
 72
     4
 11
209.5
 21
28.0
 31
0.0
100
AcDbText
  0
LINE
  5
57E
330
504
100
AcDbEntity
  8
2-線
100
AcDbLine
 10
370.0
 20
283.525
 30
0.0
 11
410.0
 21
283.525
 31
0.0
  0
TEXT
  5
57F
330
504
100
AcDbEntity
  8
2-線
100
AcDbText
 10
399.2079999999999
 20
258.825
 30
0.0
 40
2.299999999999998
  1
±０．８
 41
0.9
 72
     1
 11
403.8999999999998
 21
259.975
 31
0.0
100
AcDbText
 73
     2
  0
TEXT
  5
580
330
504
100
AcDbEntity
  8
2-線
100
AcDbText
 10
399.2079999999999
 20
262.475
 30
0.0
 40
2.299999999999998
  1
±０．５
 41
0.9
 72
     1
 11
403.8999999999998
 21
263.6249999999999
 31
0.0
100
AcDbText
 73
     2
  0
TEXT
  5
581
330
504
100
AcDbEntity
  8
2-線
100
AcDbText
 10
399.2079999999999
 20
266.1249999999999
 30
0.0
 40
2.299999999999998
  1
±０．３
 41
0.9
 72
     1
 11
403.8999999999998
 21
267.2749999999999
 31
0.0
100
AcDbText
 73
     2
  0
TEXT
  5
582
330
504
100
AcDbEntity
  8
2-線
100
AcDbText
 10
399.2079999999999
 20
269.7749999999999
 30
0.0
 40
2.299999999999998
  1
±０．２
 41
0.9
 72
     1
 11
403.8999999999998
 21
270.9249999999999
 31
0.0
100
AcDbText
 73
     2
  0
TEXT
  5
583
330
504
100
AcDbEntity
  8
2-線
100
AcDbText
 10
399.4839999999999
 20
273.4249999999999
 30
0.0
 40
2.299999999999998
  1
±０．１
 41
0.9
 72
     1
 11
403.8999999999998
 21
274.5749999999999
 31
0.0
100
AcDbText
 73
     2
  0
TEXT
  5
584
330
504
100
AcDbEntity
  8
2-線
100
AcDbText
 10
399.4839999999999
 20
277.0749999999999
 30
0.0
 40
2.299999999999998
  1
±０．１
 41
0.9
 72
     1
 11
403.8999999999998
 21
278.2249999999999
 31
0.0
100
AcDbText
 73
     2
  0
TEXT
  5
585
330
504
100
AcDbEntity
  8
2-線
100
AcDbText
 10
370.5
 20
258.825
 30
0.0
 40
2.299999999999998
  1
　３１５を超え１０００以下
 41
0.75
 11
370.5
 21
259.975
 31
0.0
100
AcDbText
 73
     2
  0
TEXT
  5
586
330
504
100
AcDbEntity
  8
2-線
100
AcDbText
 10
370.5
 20
262.475
 30
0.0
 40
2.299999999999998
  1
　１２０を超え　３１５以下
 41
0.75
 11
370.5
 21
263.6249999999999
 31
0.0
100
AcDbText
 73
     2
  0
TEXT
  5
587
330
504
100
AcDbEntity
  8
2-線
100
AcDbText
 10
370.5
 20
266.1249999999999
 30
0.0
 40
2.299999999999998
  1
　　３０を超え　１２０以下
 41
0.75
 11
370.5
 21
267.2749999999999
 31
0.0
100
AcDbText
 73
     2
  0
TEXT
  5
588
330
504
100
AcDbEntity
  8
2-線
100
AcDbText
 10
370.5
 20
269.7749999999999
 30
0.0
 40
2.299999999999998
  1
　　　６を超え　　３０以下
 41
0.75
 11
370.5
 21
270.9249999999999
 31
0.0
100
AcDbText
 73
     2
  0
TEXT
  5
589
330
504
100
AcDbEntity
  8
2-線
100
AcDbText
 10
370.5
 20
273.4249999999999
 30
0.0
 40
2.299999999999998
  1
　　　３を超え　　　６以下
 41
0.75
 11
370.5
 21
274.5749999999999
 31
0.0
100
AcDbText
 73
     2
  0
TEXT
  5
58A
330
504
100
AcDbEntity
  8
2-線
100
AcDbText
 10
370.5
 20
277.0749999999999
 30
0.0
 40
2.299999999999998
  1
  ０．５を超え　　　３以下
 41
0.75
 11
370.5
 21
278.2249999999999
 31
0.0
100
AcDbText
 73
     2
  0
LINE
  5
58B
330
504
100
AcDbEntity
  8
2-線
100
AcDbLine
 10
247.0
 20
52.0
 30
0.0
 11
410.0
 21
52.0
 31
0.0
  0
TEXT
  5
58C
330
504
100
AcDbEntity
  8
2-線
100
AcDbText
 10
259.0
 20
47.5
 30
0.0
 40
3.0
  1
ＳＣ－０８－００Ｃ
 41
0.9
 11
259.0
 21
49.0
 31
0.0
100
AcDbText
 73
     2
  0
TEXT
  5
58D
330
504
100
AcDbEntity
  8
2-線
100
AcDbText
 10
250.6
 20
47.5
 30
0.0
 40
3.0
  1
２
 72
     4
 11
252.0
 21
49.0
 31
0.0
100
AcDbText
  0
TEXT
  5
58E
330
504
100
AcDbEntity
  8
2-線
100
AcDbText
 10
309.0
 20
47.5
 30
0.0
 40
3.0
  1
Ｕ．ジョイント
 41
0.9
 11
309.0
 21
49.0
 31
0.0
100
AcDbText
 73
     2
  0
TEXT
  5
58F
330
504
100
AcDbEntity
  8
2-線
100
AcDbText
 10
357.0
 20
47.5
 30
0.0
 40
3.0
  1
ＳＣＭ４１５
 41
0.8
 11
357.0
 21
49.0
 31
0.0
100
AcDbText
 73
     2
  0
TEXT
  5
590
330
504
100
AcDbEntity
  8
2-線
100
AcDbText
 10
340.6
 20
47.5
 30
0.0
 40
3.0
  1
１ｓｅｔ
 72
     4
 11
347.5
 21
49.0
 31
0.0
100
AcDbText
  0
TEXT
  5
591
330
504
100
AcDbEntity
  8
2-線
100
AcDbText
 10
377.0
 20
47.5
 30
0.0
 40
3.0
  1
浸炭焼き入れ
 11
377.0
 21
49.0
 31
0.0
100
AcDbText
 73
     2
  0
LINE
  5
592
330
504
100
AcDbEntity
  8
2-線
100
AcDbLine
 10
247.0
 20
58.0
 30
0.0
 11
410.0
 21
58.0
 31
0.0
  0
TEXT
  5
593
330
504
100
AcDbEntity
  8
2-線
100
AcDbText
 10
259.0
 20
53.5
 30
0.0
 40
3.0
  1
ＬＩＶ１０－００－０００
 41
0.9
 11
259.0
 21
55.0
 31
0.0
100
AcDbText
 73
     2
  0
TEXT
  5
594
330
504
100
AcDbEntity
  8
2-線
100
AcDbText
 10
250.6
 20
53.5
 30
0.0
 40
3.0
  1
３
 72
     4
 11
252.0
 21
55.0
 31
0.0
100
AcDbText
  0
TEXT
  5
595
330
504
100
AcDbEntity
  8
2-線
100
AcDbText
 10
309.0
 20
53.5
 30
0.0
 40
3.0
  1
スリーブ
 11
309.0
 21
55.0
 31
0.0
100
AcDbText
 73
     2
  0
TEXT
  5
596
330
504
100
AcDbEntity
  8
2-線
100
AcDbText
 10
357.0
 20
53.5
 30
0.0
 40
3.0
  1
Ｓ４５Ｃ
 41
0.8
 11
357.0
 21
55.0
 31
0.0
100
AcDbText
 73
     2
  0
TEXT
  5
597
330
504
100
AcDbEntity
  8
2-線
100
AcDbText
 10
346.2
 20
53.5
 30
0.0
 40
3.0
  1
１
 72
     4
 11
347.5
 21
55.0
 31
0.0
100
AcDbText
  0
LINE
  5
598
330
504
100
AcDbEntity
  8
2-線
100
AcDbLine
 10
247.0
 20
64.0
 30
0.0
 11
410.0
 21
64.0
 31
0.0
  0
TEXT
  5
599
330
504
100
AcDbEntity
  8
2-線
100
AcDbText
 10
259.0
 20
59.5
 30
0.0
 40
3.0
  1
ＬＩＳ１０－ＳＳ－００１
 41
0.9
 11
259.0
 21
61.0
 31
0.0
100
AcDbText
 73
     2
  0
TEXT
  5
59A
330
504
100
AcDbEntity
  8
2-線
100
AcDbText
 10
250.6
 20
59.5
 30
0.0
 40
3.0
  1
４
 72
     4
 11
252.0
 21
61.0
 31
0.0
100
AcDbText
  0
TEXT
  5
59B
330
504
100
AcDbEntity
  8
2-線
100
AcDbText
 10
309.0
 20
59.5
 30
0.0
 40
3.0
  1
スプライン軸
 41
0.9
 11
309.0
 21
61.0
 31
0.0
100
AcDbText
 73
     2
  0
TEXT
  5
59C
330
504
100
AcDbEntity
  8
2-線
100
AcDbText
 10
357.0
 20
59.5
 30
0.0
 40
3.0
  1
ＳＫ４
 41
0.8
 11
357.0
 21
61.0
 31
0.0
100
AcDbText
 73
     2
  0
TEXT
  5
59D
330
504
100
AcDbEntity
  8
2-線
100
AcDbText
 10
346.2
 20
59.5
 30
0.0
 40
3.0
  1
１
 72
     4
 11
347.5
 21
61.0
 31
0.0
100
AcDbText
  0
LINE
  5
59E
330
504
100
AcDbEntity
  8
2-線
100
AcDbLine
 10
247.0
 20
70.0
 30
0.0
 11
410.0
 21
70.0
 31
0.0
  0
TEXT
  5
59F
330
504
100
AcDbEntity
  8
2-線
100
AcDbText
 10
259.0
 20
65.5
 30
0.0
 40
3.0
  1
ＬＬＰ０８－００－０００
 41
0.9
 11
259.0
 21
67.0
 31
0.0
100
AcDbText
 73
     2
  0
TEXT
  5
5A0
330
504
100
AcDbEntity
  8
2-線
100
AcDbText
 10
250.5
 20
65.5
 30
0.0
 40
3.0
  1
５
 72
     4
 11
252.0
 21
67.0
 31
0.0
100
AcDbText
  0
TEXT
  5
5A1
330
504
100
AcDbEntity
  8
2-線
100
AcDbText
 10
309.0
 20
65.5
 30
0.0
 40
3.0
  1
連結軸
 41
0.9
 11
309.0
 21
67.0
 31
0.0
100
AcDbText
 73
     2
  0
TEXT
  5
5A2
330
504
100
AcDbEntity
  8
2-線
100
AcDbText
 10
357.0
 20
65.5
 30
0.0
 40
3.0
  1
ＳＫ４
 41
0.8
 11
357.0
 21
67.0
 31
0.0
100
AcDbText
 73
     2
  0
TEXT
  5
5A3
330
504
100
AcDbEntity
  8
2-線
100
AcDbText
 10
346.2
 20
65.5
 30
0.0
 40
3.0
  1
１
 72
     4
 11
347.5
 21
67.0
 31
0.0
100
AcDbText
  0
LINE
  5
5A4
330
504
100
AcDbEntity
  8
2-線
100
AcDbLine
 10
247.0
 20
76.0
 30
0.0
 11
410.0
 21
76.0
 31
0.0
  0
TEXT
  5
5A5
330
504
100
AcDbEntity
  8
2-線
100
AcDbText
 10
259.0
 20
71.5
 30
0.0
 40
3.0
  1
ＥＳＰ０５－１８
 41
0.9
 11
259.0
 21
73.0
 31
0.0
100
AcDbText
 73
     2
  0
TEXT
  5
5A6
330
504
100
AcDbEntity
  8
2-線
100
AcDbText
 10
250.6
 20
71.5
 30
0.0
 40
3.0
  1
６
 72
     4
 11
252.0
 21
73.0
 31
0.0
100
AcDbText
  0
TEXT
  5
5A7
330
504
100
AcDbEntity
  8
2-線
100
AcDbText
 10
309.0
 20
71.5
 30
0.0
 40
3.0
  1
平行ピン
 41
0.9
 11
309.0
 21
73.0
 31
0.0
100
AcDbText
 73
     2
  0
TEXT
  5
5A8
330
504
100
AcDbEntity
  8
2-線
100
AcDbText
 10
357.0
 20
71.5
 30
0.0
 40
3.0
  1
市販品
 41
0.8
 11
357.0
 21
73.0
 31
0.0
100
AcDbText
 73
     2
  0
TEXT
  5
5A9
330
504
100
AcDbEntity
  8
2-線
100
AcDbText
 10
346.2
 20
71.5
 30
0.0
 40
3.0
  1
１
 72
     4
 11
347.5
 21
73.0
 31
0.0
100
AcDbText
  0
ENDBLK
  5
5AB
330
504
100
AcDbEntity
  8
0
100
AcDbBlockEnd
  0
BLOCK
  5
2923
330
2919
100
AcDbEntity
  8
0
100
AcDbBlockBegin
  2
*D4
 70
     1
 10
0.0
 20
0.0
 30
0.0
  3
*D4
  1

  0
LINE
  5
2B9A
330
2919
100
AcDbEntity
  8
1-線
 62
     0
370
    -2
100
AcDbLine
 10
215.9999967161885
 20
183.7331478381446
 30
0.0
 11
215.9999967161885
 21
139.0
 31
0.0
  0
LINE
  5
2B9B
330
2919
100
AcDbEntity
  8
1-線
 62
     0
370
    -2
100
AcDbLine
 10
239.9999981261107
 20
147.0
 30
0.0
 11
239.9999981261107
 21
139.0
 31
0.0
  0
LINE
  5
2B9C
330
2919
100
AcDbEntity
  8
1-線
 62
     0
370
    -2
100
AcDbLine
 10
218.4999967161885
 20
140.0
 30
0.0
 11
237.4999981261107
 21
140.0
 31
0.0
  0
INSERT
  5
2B9D
330
2919
100
AcDbEntity
  8
1-線
 62
     0
370
    -2
100
AcDbBlockReference
  2
_Open30
 10
215.9999967161885
 20
140.0
 30
0.0
 41
2.5
 42
2.5
 43
2.5
 50
180.0
  0
INSERT
  5
2B9E
330
2919
100
AcDbEntity
  8
1-線
 62
     0
370
    -2
100
AcDbBlockReference
  2
_Open30
 10
239.9999981261107
 20
140.0
 30
0.0
 41
2.5
 42
2.5
 43
2.5
  0
MTEXT
  5
2B9F
330
2919
100
AcDbEntity
  8
1-線
 62
     0
100
AcDbMText
 10
227.9999974211496
 20
142.5
 30
0.0
 40
3.0
 41
0.0
 71
     5
 72
     1
  1
12
 73
     1
 44
1.0
  0
POINT
  5
2BA0
330
2919
100
AcDbEntity
  8
Defpoints
 62
     0
100
AcDbPoint
 10
215.9999967161885
 20
183.7331478381446
 30
0.0
  0
POINT
  5
2BA1
330
2919
100
AcDbEntity
  8
Defpoints
 62
     0
100
AcDbPoint
 10
239.9999981261107
 20
147.0
 30
0.0
  0
POINT
  5
2BA2
330
2919
100
AcDbEntity
  8
Defpoints
 62
     0
100
AcDbPoint
 10
239.9999981261107
 20
140.0
 30
0.0
  0
ENDBLK
  5
2924
330
2919
100
AcDbEntity
  8
0
100
AcDbBlockEnd
  0
BLOCK
  5
292F
330
2925
100
AcDbEntity
  8
0
100
AcDbBlockBegin
  2
*D5
 70
     1
 10
0.0
 20
0.0
 30
0.0
  3
*D5
  1

  0
LINE
  5
2BA3
330
2925
100
AcDbEntity
  8
1-線
 62
     0
370
    -2
100
AcDbLine
 10
215.9999967161885
 20
183.7331478381446
 30
0.0
 11
215.9999967161885
 21
139.0
 31
0.0
  0
LINE
  5
2BA4
330
2925
100
AcDbEntity
  8
1-線
 62
     0
370
    -2
100
AcDbLine
 10
192.0000012149357
 20
147.0000085663353
 30
0.0
 11
192.0000012149357
 21
139.0
 31
0.0
  0
LINE
  5
2BA5
330
2925
100
AcDbEntity
  8
1-線
 62
     0
370
    -2
100
AcDbLine
 10
213.4999967161885
 20
140.0
 30
0.0
 11
194.5000012149357
 21
140.0
 31
0.0
  0
INSERT
  5
2BA6
330
2925
100
AcDbEntity
  8
1-線
 62
     0
370
    -2
100
AcDbBlockReference
  2
_Open30
 10
215.9999967161885
 20
140.0
 30
0.0
 41
2.5
 42
2.5
 43
2.5
  0
INSERT
  5
2BA7
330
2925
100
AcDbEntity
  8
1-線
 62
     0
370
    -2
100
AcDbBlockReference
  2
_Open30
 10
192.0000012149357
 20
140.0
 30
0.0
 41
2.5
 42
2.5
 43
2.5
 50
180.0
  0
MTEXT
  5
2BA8
330
2925
100
AcDbEntity
  8
1-線
 62
     0
100
AcDbMText
 10
203.9999989655621
 20
142.5
 30
0.0
 40
3.0
 41
0.0
 71
     5
 72
     1
  1
12
 73
     1
 44
1.0
  0
POINT
  5
2BA9
330
2925
100
AcDbEntity
  8
Defpoints
 62
     0
100
AcDbPoint
 10
215.9999967161885
 20
183.7331478381446
 30
0.0
  0
POINT
  5
2BAA
330
2925
100
AcDbEntity
  8
Defpoints
 62
     0
100
AcDbPoint
 10
192.0000012149357
 20
147.0000085663353
 30
0.0
  0
POINT
  5
2BAB
330
2925
100
AcDbEntity
  8
Defpoints
 62
     0
100
AcDbPoint
 10
192.0000012149357
 20
140.0
 30
0.0
  0
ENDBLK
  5
2930
330
2925
100
AcDbEntity
  8
0
100
AcDbBlockEnd
  0
BLOCK
  5
293B
330
2931
100
AcDbEntity
  8
0
100
AcDbBlockBegin
  2
*D6
 70
     1
 10
0.0
 20
0.0
 30
0.0
  3
*D6
  1

  0
LINE
  5
2B33
330
2931
100
AcDbEntity
  8
1-線
 62
     0
370
    -2
100
AcDbLine
 10
239.9999981261107
 20
155.0
 30
0.0
 11
239.9999981261107
 21
147.0
 31
0.0
  0
LINE
  5
2B34
330
2931
100
AcDbEntity
  8
1-線
 62
     0
370
    -2
100
AcDbLine
 10
226.0000000000003
 20
196.0
 30
0.0
 11
226.0000000000003
 21
147.0
 31
0.0
  0
LINE
  5
2B35
330
2931
100
AcDbEntity
  8
1-線
 62
     0
370
    -2
100
AcDbLine
 10
237.4999981261107
 20
148.0
 30
0.0
 11
228.5000000000003
 21
148.0
 31
0.0
  0
INSERT
  5
2B36
330
2931
100
AcDbEntity
  8
1-線
 62
     0
370
    -2
100
AcDbBlockReference
  2
_Open30
 10
239.9999981261107
 20
148.0
 30
0.0
 41
2.5
 42
2.5
 43
2.5
  0
INSERT
  5
2B37
330
2931
100
AcDbEntity
  8
1-線
 62
     0
370
    -2
100
AcDbBlockReference
  2
_Open30
 10
226.0000000000003
 20
148.0
 30
0.0
 41
2.5
 42
2.5
 43
2.5
 50
180.0
  0
MTEXT
  5
2B38
330
2931
100
AcDbEntity
  8
1-線
 62
     0
100
AcDbMText
 10
232.9999990630555
 20
150.5
 30
0.0
 40
3.0
 41
0.0
 71
     5
 72
     1
  1
7
 73
     1
 44
1.0
  0
POINT
  5
2B39
330
2931
100
AcDbEntity
  8
Defpoints
 62
     0
100
AcDbPoint
 10
239.9999981261107
 20
155.0
 30
0.0
  0
POINT
  5
2B3A
330
2931
100
AcDbEntity
  8
Defpoints
 62
     0
100
AcDbPoint
 10
226.0000000000003
 20
196.0
 30
0.0
  0
POINT
  5
2B3B
330
2931
100
AcDbEntity
  8
Defpoints
 62
     0
100
AcDbPoint
 10
226.0000000000003
 20
148.0
 30
0.0
  0
ENDBLK
  5
293C
330
2931
100
AcDbEntity
  8
0
100
AcDbBlockEnd
  0
BLOCK
  5
2947
330
293D
100
AcDbEntity
  8
0
100
AcDbBlockBegin
  2
*D7
 70
     1
 10
0.0
 20
0.0
 30
0.0
  3
*D7
  1

  0
LINE
  5
2B91
330
293D
100
AcDbEntity
  8
1-線
 62
     0
370
    -2
100
AcDbLine
 10
192.0000012149357
 20
139.0
 30
0.0
 11
192.0000012149357
 21
131.0
 31
0.0
  0
LINE
  5
2B92
330
293D
100
AcDbEntity
  8
1-線
 62
     0
370
    -2
100
AcDbLine
 10
239.9999981261107
 20
139.0
 30
0.0
 11
239.9999981261107
 21
131.0
 31
0.0
  0
LINE
  5
2B93
330
293D
100
AcDbEntity
  8
1-線
 62
     0
370
    -2
100
AcDbLine
 10
194.5000012149357
 20
132.0
 30
0.0
 11
237.4999981261107
 21
132.0
 31
0.0
  0
INSERT
  5
2B94
330
293D
100
AcDbEntity
  8
1-線
 62
     0
370
    -2
100
AcDbBlockReference
  2
_Open30
 10
192.0000012149357
 20
132.0
 30
0.0
 41
2.5
 42
2.5
 43
2.5
 50
180.0
  0
INSERT
  5
2B95
330
293D
100
AcDbEntity
  8
1-線
 62
     0
370
    -2
100
AcDbBlockReference
  2
_Open30
 10
239.9999981261107
 20
132.0
 30
0.0
 41
2.5
 42
2.5
 43
2.5
  0
MTEXT
  5
2B96
330
293D
100
AcDbEntity
  8
1-線
 62
     0
100
AcDbMText
 10
215.9999996705232
 20
134.5
 30
0.0
 40
3.0
 41
0.0
 71
     5
 72
     1
  1
24
 73
     1
 44
1.0
  0
POINT
  5
2B97
330
293D
100
AcDbEntity
  8
Defpoints
 62
     0
100
AcDbPoint
 10
192.0000012149357
 20
139.0
 30
0.0
  0
POINT
  5
2B98
330
293D
100
AcDbEntity
  8
Defpoints
 62
     0
100
AcDbPoint
 10
239.9999981261107
 20
139.0
 30
0.0
  0
POINT
  5
2B99
330
293D
100
AcDbEntity
  8
Defpoints
 62
     0
100
AcDbPoint
 10
239.9999981261107
 20
132.0
 30
0.0
  0
ENDBLK
  5
2948
330
293D
100
AcDbEntity
  8
0
100
AcDbBlockEnd
  0
BLOCK
  5
2953
330
2949
100
AcDbEntity
  8
0
100
AcDbBlockBegin
  2
*D8
 70
     1
 10
0.0
 20
0.0
 30
0.0
  3
*D8
  1

  0
LINE
  5
2BB5
330
2949
100
AcDbEntity
  8
1-線
 62
     0
370
    -2
100
AcDbLine
 10
193.000001070791
 20
200.0
 30
0.0
 11
171.0
 21
200.0
 31
0.0
  0
LINE
  5
2BB6
330
2949
100
AcDbEntity
  8
1-線
 62
     0
370
    -2
100
AcDbLine
 10
193.0000010707911
 20
192.0
 30
0.0
 11
171.0
 21
192.0
 31
0.0
  0
LINE
  5
2BB7
330
2949
100
AcDbEntity
  8
1-線
 62
     0
370
    -2
100
AcDbLine
 10
172.0
 20
197.5
 30
0.0
 11
172.0
 21
194.5
 31
0.0
  0
INSERT
  5
2BB8
330
2949
100
AcDbEntity
  8
1-線
 62
     0
370
    -2
100
AcDbBlockReference
  2
_Open30
 10
172.0
 20
200.0
 30
0.0
 41
2.5
 42
2.5
 43
2.5
 50
90.0
  0
INSERT
  5
2BB9
330
2949
100
AcDbEntity
  8
1-線
 62
     0
370
    -2
100
AcDbBlockReference
  2
_Open30
 10
172.0
 20
192.0
 30
0.0
 41
2.5
 42
2.5
 43
2.5
 50
270.0
  0
MTEXT
  5
2BBA
330
2949
100
AcDbEntity
  8
1-線
 62
     0
100
AcDbMText
 10
169.5
 20
196.0
 30
0.0
 40
3.0
 41
0.0
 71
     5
 72
     1
  1
\A1;%%c4{\H0.7x;\SH8^ ;}
 11
0.0000000000000001
 21
1.0
 31
0.0
 73
     1
 44
1.0
  0
POINT
  5
2BBB
330
2949
100
AcDbEntity
  8
Defpoints
 62
     0
100
AcDbPoint
 10
193.000001070791
 20
200.0
 30
0.0
  0
POINT
  5
2BBC
330
2949
100
AcDbEntity
  8
Defpoints
 62
     0
100
AcDbPoint
 10
193.0000010707911
 20
192.0
 30
0.0
  0
POINT
  5
2BBD
330
2949
100
AcDbEntity
  8
Defpoints
 62
     0
100
AcDbPoint
 10
172.0
 20
192.0
 30
0.0
  0
ENDBLK
  5
2954
330
2949
100
AcDbEntity
  8
0
100
AcDbBlockEnd
  0
BLOCK
  5
295F
330
2955
100
AcDbEntity
  8
0
100
AcDbBlockBegin
  2
*D9
 70
     1
 10
0.0
 20
0.0
 30
0.0
  3
*D9
  1

  0
LINE
  5
2BC7
330
2955
100
AcDbEntity
  8
1-線
 62
     0
370
    -2
100
AcDbLine
 10
193.0000023522858
 20
204.0000035422188
 30
0.0
 11
163.0
 21
204.0000035422188
 31
0.0
  0
LINE
  5
2BC8
330
2955
100
AcDbEntity
  8
1-線
 62
     0
370
    -2
100
AcDbLine
 10
193.0000014874141
 20
187.9999964577821
 30
0.0
 11
163.0
 21
187.9999964577821
 31
0.0
  0
LINE
  5
2BC9
330
2955
100
AcDbEntity
  8
1-線
 62
     0
370
    -2
100
AcDbLine
 10
164.0
 20
201.5000035422188
 30
0.0
 11
164.0
 21
190.4999964577821
 31
0.0
  0
INSERT
  5
2BCA
330
2955
100
AcDbEntity
  8
1-線
 62
     0
370
    -2
100
AcDbBlockReference
  2
_Open30
 10
164.0
 20
204.0000035422188
 30
0.0
 41
2.5
 42
2.5
 43
2.5
 50
90.0
  0
INSERT
  5
2BCB
330
2955
100
AcDbEntity
  8
1-線
 62
     0
370
    -2
100
AcDbBlockReference
  2
_Open30
 10
164.0
 20
187.9999964577821
 30
0.0
 41
2.5
 42
2.5
 43
2.5
 50
270.0
  0
MTEXT
  5
2BCC
330
2955
100
AcDbEntity
  8
1-線
 62
     0
100
AcDbMText
 10
161.5
 20
196.0
 30
0.0
 40
3.0
 41
0.0
 71
     5
 72
     1
  1
%%c8
 11
0.0000000000000001
 21
1.0
 31
0.0
 73
     1
 44
1.0
  0
POINT
  5
2BCD
330
2955
100
AcDbEntity
  8
Defpoints
 62
     0
100
AcDbPoint
 10
193.0000023522858
 20
204.0000035422188
 30
0.0
  0
POINT
  5
2BCE
330
2955
100
AcDbEntity
  8
Defpoints
 62
     0
100
AcDbPoint
 10
193.0000014874141
 20
187.9999964577821
 30
0.0
  0
POINT
  5
2BCF
330
2955
100
AcDbEntity
  8
Defpoints
 62
     0
100
AcDbPoint
 10
164.0
 20
187.9999964577821
 30
0.0
  0
ENDBLK
  5
2960
330
2955
100
AcDbEntity
  8
0
100
AcDbBlockEnd
  0
BLOCK
  5
297B
330
296F
100
AcDbEntity
  8
0
100
AcDbBlockBegin
  2
*D10
 70
     1
 10
0.0
 20
0.0
 30
0.0
  3
*D10
  1

  0
LINE
  5
2B21
330
296F
100
AcDbEntity
  8
1-線
 62
     0
370
    -2
100
AcDbLine
 10
231.9999970585568
 20
185.0120806767573
 30
0.0
 11
231.9999970585568
 21
155.0
 31
0.0
  0
LINE
  5
2B22
330
296F
100
AcDbEntity
  8
1-線
 62
     0
370
    -2
100
AcDbLine
 10
239.9999981261107
 20
188.999983875976
 30
0.0
 11
239.9999981261107
 21
155.0
 31
0.0
  0
LINE
  5
2B23
330
296F
100
AcDbEntity
  8
1-線
 62
     0
370
    -2
100
AcDbLine
 10
234.4999970585568
 20
156.0
 30
0.0
 11
237.4999981261107
 21
156.0
 31
0.0
  0
INSERT
  5
2B24
330
296F
100
AcDbEntity
  8
1-線
 62
     0
370
    -2
100
AcDbBlockReference
  2
_Open30
 10
231.9999970585568
 20
156.0
 30
0.0
 41
2.5
 42
2.5
 43
2.5
 50
180.0
  0
INSERT
  5
2B25
330
296F
100
AcDbEntity
  8
1-線
 62
     0
370
    -2
100
AcDbBlockReference
  2
_Open30
 10
239.9999981261107
 20
156.0
 30
0.0
 41
2.5
 42
2.5
 43
2.5
  0
MTEXT
  5
2B26
330
296F
100
AcDbEntity
  8
1-線
 62
     0
100
AcDbMText
 10
235.9999975923336
 20
158.5
 30
0.0
 40
3.0
 41
0.0
 71
     5
 72
     1
  1
4
 73
     1
 44
1.0
  0
POINT
  5
2B27
330
296F
100
AcDbEntity
  8
Defpoints
 62
     0
100
AcDbPoint
 10
231.9999970585568
 20
185.0120806767573
 30
0.0
  0
POINT
  5
2B28
330
296F
100
AcDbEntity
  8
Defpoints
 62
     0
100
AcDbPoint
 10
239.9999981261107
 20
188.999983875976
 30
0.0
  0
POINT
  5
2B29
330
296F
100
AcDbEntity
  8
Defpoints
 62
     0
100
AcDbPoint
 10
239.9999981261107
 20
156.0
 30
0.0
  0
ENDBLK
  5
297C
330
296F
100
AcDbEntity
  8
0
100
AcDbBlockEnd
  0
BLOCK
  5
2989
330
297D
100
AcDbEntity
  8
0
100
AcDbBlockBegin
  2
*D11
 70
     1
 10
0.0
 20
0.0
 30
0.0
  3
*D11
  1

  0
LINE
  5
2B0D
330
297D
100
AcDbEntity
  8
1-線
 62
     0
370
    -2
100
AcDbLine
 10
199.9999970585579
 20
162.6729094411849
 30
0.0
 11
199.9999970585579
 21
155.0
 31
0.0
  0
LINE
  5
2B0E
330
297D
100
AcDbEntity
  8
1-線
 62
     0
370
    -2
100
AcDbLine
 10
192.0000012149357
 20
162.6339205581202
 30
0.0
 11
192.0000012149357
 21
155.0
 31
0.0
  0
LINE
  5
2B0F
330
297D
100
AcDbEntity
  8
1-線
 62
     0
370
    -2
100
AcDbLine
 10
197.4999970585578
 20
156.0
 30
0.0
 11
194.5000012149357
 21
156.0
 31
0.0
  0
INSERT
  5
2B10
330
297D
100
AcDbEntity
  8
1-線
 62
     0
370
    -2
100
AcDbBlockReference
  2
_Open30
 10
199.9999970585579
 20
156.0
 30
0.0
 41
2.5
 42
2.5
 43
2.5
  0
INSERT
  5
2B11
330
297D
100
AcDbEntity
  8
1-線
 62
     0
370
    -2
100
AcDbBlockReference
  2
_Open30
 10
192.0000012149357
 20
156.0
 30
0.0
 41
2.5
 42
2.5
 43
2.5
 50
180.0
  0
MTEXT
  5
2B12
330
297D
100
AcDbEntity
  8
1-線
 62
     0
100
AcDbMText
 10
195.9999991367468
 20
158.5
 30
0.0
 40
3.0
 41
0.0
 71
     5
 72
     1
  1
4
 73
     1
 44
1.0
  0
POINT
  5
2B13
330
297D
100
AcDbEntity
  8
Defpoints
 62
     0
100
AcDbPoint
 10
199.9999970585579
 20
162.6729094411849
 30
0.0
  0
POINT
  5
2B14
330
297D
100
AcDbEntity
  8
Defpoints
 62
     0
100
AcDbPoint
 10
192.0000012149357
 20
162.6339205581202
 30
0.0
  0
POINT
  5
2B15
330
297D
100
AcDbEntity
  8
Defpoints
 62
     0
100
AcDbPoint
 10
192.0000012149357
 20
156.0
 30
0.0
  0
ENDBLK
  5
298A
330
297D
100
AcDbEntity
  8
0
100
AcDbBlockEnd
  0
BLOCK
  5
2A3E
330
2A32
100
AcDbEntity
  8
0
100
AcDbBlockBegin
  2
*D12
 70
     1
 10
0.0
 20
0.0
 30
0.0
  3
*D12
  1

  0
LINE
  5
2D23
330
2A32
100
AcDbEntity
  8
2-線
 62
     0
370
    -2
100
AcDbLine
 10
198.499997858415
 20
187.9999979564122
 30
0.0
 11
198.499997858415
 21
163.0
 31
0.0
  0
LINE
  5
2D24
330
2A32
100
AcDbEntity
  8
2-線
 62
     0
370
    -2
100
AcDbLine
 10
201.499997858415
 20
187.9999974568692
 30
0.0
 11
201.499997858415
 21
163.0
 31
0.0
  0
LINE
  5
2D25
330
2A32
100
AcDbEntity
  8
2-線
 62
     0
370
    -2
100
AcDbLine
 10
203.999997858415
 20
164.0
 30
0.0
 11
206.4999978584149
 21
164.0
 31
0.0
  0
LINE
  5
2D26
330
2A32
100
AcDbEntity
  8
2-線
 62
     0
370
    -2
100
AcDbLine
 10
195.999997858415
 20
164.0
 30
0.0
 11
176.75
 21
164.0
 31
0.0
  0
LINE
  5
2D27
330
2A32
100
AcDbEntity
  8
2-線
 62
     0
370
    -2
100
AcDbLine
 10
201.499997858415
 20
164.0
 30
0.0
 11
198.499997858415
 21
164.0
 31
0.0
  0
INSERT
  5
2D28
330
2A32
100
AcDbEntity
  8
2-線
 62
     0
370
    -2
100
AcDbBlockReference
  2
_Open30
 10
201.499997858415
 20
164.0
 30
0.0
 41
2.5
 42
2.5
 43
2.5
 50
180.0
  0
INSERT
  5
2D29
330
2A32
100
AcDbEntity
  8
2-線
 62
     0
370
    -2
100
AcDbBlockReference
  2
_Open30
 10
198.499997858415
 20
164.0
 30
0.0
 41
2.5
 42
2.5
 43
2.5
  0
MTEXT
  5
2D2A
330
2A32
100
AcDbEntity
  8
2-線
 62
     0
100
AcDbMText
 10
184.0
 20
167.45
 30
0.0
 40
3.0
 41
0.0
 71
     5
 72
     1
  1
\A1;%%C1.5{\H0.7x;\SH7^ h7;}
 73
     1
 44
1.0
  0
POINT
  5
2D2B
330
2A32
100
AcDbEntity
  8
Defpoints
 62
     0
100
AcDbPoint
 10
198.499997858415
 20
187.9999979564122
 30
0.0
  0
POINT
  5
2D2C
330
2A32
100
AcDbEntity
  8
Defpoints
 62
     0
100
AcDbPoint
 10
201.499997858415
 20
187.9999974568692
 30
0.0
  0
POINT
  5
2D2D
330
2A32
100
AcDbEntity
  8
Defpoints
 62
     0
100
AcDbPoint
 10
201.499997858415
 20
164.0
 30
0.0
  0
ENDBLK
  5
2A3F
330
2A32
100
AcDbEntity
  8
0
100
AcDbBlockEnd
  0
BLOCK
  5
2B59
330
2B4F
100
AcDbEntity
  8
0
100
AcDbBlockBegin
  2
*D13
 70
     1
 10
0.0
 20
0.0
 30
0.0
  3
*D13
  1

  0
LINE
  5
2B6D
330
2B4F
100
AcDbEntity
  8
1-線
 62
     0
370
    -2
100
AcDbLine
 10
205.9999978584158
 20
188.0
 30
0.0
 11
205.9999978584158
 21
147.0000085663353
 31
0.0
  0
LINE
  5
2B6E
330
2B4F
100
AcDbEntity
  8
1-線
 62
     0
370
    -2
100
AcDbLine
 10
192.0000012149357
 20
155.0
 30
0.0
 11
192.0000012149357
 21
147.0000085663353
 31
0.0
  0
LINE
  5
2B6F
330
2B4F
100
AcDbEntity
  8
1-線
 62
     0
370
    -2
100
AcDbLine
 10
203.4999978584158
 20
148.0000085663353
 30
0.0
 11
194.5000012149357
 21
148.0000085663353
 31
0.0
  0
INSERT
  5
2B70
330
2B4F
100
AcDbEntity
  8
1-線
 62
     0
370
    -2
100
AcDbBlockReference
  2
_Open30
 10
205.9999978584158
 20
148.0000085663353
 30
0.0
 41
2.5
 42
2.5
 43
2.5
  0
INSERT
  5
2B71
330
2B4F
100
AcDbEntity
  8
1-線
 62
     0
370
    -2
100
AcDbBlockReference
  2
_Open30
 10
192.0000012149357
 20
148.0000085663353
 30
0.0
 41
2.5
 42
2.5
 43
2.5
 50
180.0
  0
MTEXT
  5
2B72
330
2B4F
100
AcDbEntity
  8
1-線
 62
     0
100
AcDbMText
 10
198.9999995366757
 20
150.5000085663353
 30
0.0
 40
3.0
 41
0.0
 71
     5
 72
     1
  1
7
 73
     1
 44
1.0
  0
POINT
  5
2B73
330
2B4F
100
AcDbEntity
  8
Defpoints
 62
     0
100
AcDbPoint
 10
205.9999978584158
 20
188.0
 30
0.0
  0
POINT
  5
2B74
330
2B4F
100
AcDbEntity
  8
Defpoints
 62
     0
100
AcDbPoint
 10
192.0000012149357
 20
155.0
 30
0.0
  0
POINT
  5
2B75
330
2B4F
100
AcDbEntity
  8
Defpoints
 62
     0
100
AcDbPoint
 10
192.0000012149357
 20
148.0000085663353
 30
0.0
  0
ENDBLK
  5
2B5A
330
2B4F
100
AcDbEntity
  8
0
100
AcDbBlockEnd
  0
BLOCK
  5
2BFC
330
2BF2
100
AcDbEntity
  8
0
100
AcDbBlockBegin
  2
*D14
 70
     1
 10
0.0
 20
0.0
 30
0.0
  3
*D14
  1

  0
LINE
  5
2C85
330
2BF2
100
AcDbEntity
  8
1-線
 62
     0
370
    -2
100
AcDbLine
 10
263.1789369026618
 20
200.0
 30
0.0
 11
264.9507220634405
 21
200.0
 31
0.0
  0
LINE
  5
2C86
330
2BF2
100
AcDbEntity
  8
1-線
 62
     0
370
    -2
100
AcDbLine
 10
238.9999989292089
 20
192.0
 30
0.0
 11
264.9507220634405
 21
192.0
 31
0.0
  0
LINE
  5
2C87
330
2BF2
100
AcDbEntity
  8
1-線
 62
     0
370
    -2
100
AcDbLine
 10
263.9507220634405
 20
197.5
 30
0.0
 11
263.9507220634405
 21
194.5
 31
0.0
  0
INSERT
  5
2C88
330
2BF2
100
AcDbEntity
  8
1-線
 62
     0
370
    -2
100
AcDbBlockReference
  2
_Open30
 10
263.9507220634405
 20
200.0
 30
0.0
 41
2.5
 42
2.5
 43
2.5
 50
90.0
  0
INSERT
  5
2C89
330
2BF2
100
AcDbEntity
  8
1-線
 62
     0
370
    -2
100
AcDbBlockReference
  2
_Open30
 10
263.9507220634405
 20
192.0
 30
0.0
 41
2.5
 42
2.5
 43
2.5
 50
270.0
  0
MTEXT
  5
2C8A
330
2BF2
100
AcDbEntity
  8
1-線
 62
     0
100
AcDbMText
 10
261.4507220634404
 20
197.9920032724649
 30
0.0
 40
3.0
 41
0.0
 71
     5
 72
     1
  1
\A1;%%c4{\H0.7x;\SH8^ ;}
 11
0.0000000000000001
 21
1.0
 31
0.0
 73
     1
 44
1.0
  0
POINT
  5
2C8B
330
2BF2
100
AcDbEntity
  8
Defpoints
 62
     0
100
AcDbPoint
 10
263.1789369026618
 20
200.0
 30
0.0
  0
POINT
  5
2C8C
330
2BF2
100
AcDbEntity
  8
Defpoints
 62
     0
100
AcDbPoint
 10
238.9999989292089
 20
192.0
 30
0.0
  0
POINT
  5
2C8D
330
2BF2
100
AcDbEntity
  8
Defpoints
 62
     0
100
AcDbPoint
 10
263.9507220634405
 20
192.0
 30
0.0
  0
ENDBLK
  5
2BFD
330
2BF2
100
AcDbEntity
  8
0
100
AcDbBlockEnd
  0
BLOCK
  5
2C08
330
2BFE
100
AcDbEntity
  8
0
100
AcDbBlockBegin
  2
*D15
 70
     1
 10
0.0
 20
0.0
 30
0.0
  3
*D15
  1

  0
LINE
  5
2C52
330
2BFE
100
AcDbEntity
  8
1-線
 62
     0
370
    -2
100
AcDbLine
 10
239.000002136802
 20
203.9999912281117
 30
0.0
 11
273.0
 21
203.9999912281117
 31
0.0
  0
LINE
  5
2C53
330
2BFE
100
AcDbEntity
  8
1-線
 62
     0
370
    -2
100
AcDbLine
 10
238.9999973182364
 20
187.9999841436743
 30
0.0
 11
273.0
 21
187.9999841436743
 31
0.0
  0
LINE
  5
2C54
330
2BFE
100
AcDbEntity
  8
1-線
 62
     0
370
    -2
100
AcDbLine
 10
272.0000000000001
 20
201.4999912281117
 30
0.0
 11
272.0000000000001
 21
190.4999841436743
 31
0.0
  0
INSERT
  5
2C55
330
2BFE
100
AcDbEntity
  8
1-線
 62
     0
370
    -2
100
AcDbBlockReference
  2
_Open30
 10
272.0000000000001
 20
203.9999912281117
 30
0.0
 41
2.5
 42
2.5
 43
2.5
 50
90.0
  0
INSERT
  5
2C56
330
2BFE
100
AcDbEntity
  8
1-線
 62
     0
370
    -2
100
AcDbBlockReference
  2
_Open30
 10
272.0000000000001
 20
187.9999841436743
 30
0.0
 41
2.5
 42
2.5
 43
2.5
 50
270.0
  0
MTEXT
  5
2C57
330
2BFE
100
AcDbEntity
  8
1-線
 62
     0
100
AcDbMText
 10
269.5
 20
196.0
 30
0.0
 40
3.0
 41
0.0
 71
     5
 72
     1
  1
%%c8
 11
0.0000000000000001
 21
1.0
 31
0.0
 73
     1
 44
1.0
  0
POINT
  5
2C58
330
2BFE
100
AcDbEntity
  8
Defpoints
 62
     0
100
AcDbPoint
 10
239.000002136802
 20
203.9999912281117
 30
0.0
  0
POINT
  5
2C59
330
2BFE
100
AcDbEntity
  8
Defpoints
 62
     0
100
AcDbPoint
 10
238.9999973182364
 20
187.9999841436743
 30
0.0
  0
POINT
  5
2C5A
330
2BFE
100
AcDbEntity
  8
Defpoints
 62
     0
100
AcDbPoint
 10
272.0000000000001
 20
187.9999841436743
 30
0.0
  0
ENDBLK
  5
2C09
330
2BFE
100
AcDbEntity
  8
0
100
AcDbBlockEnd
  0
BLOCK
  5
2D68
330
2D5E
100
AcDbEntity
  8
0
100
AcDbBlockBegin
  2
*D16
 70
     1
 10
0.0
 20
0.0
 30
0.0
  3
*D16
  1

  0
LINE
  5
2D5F
330
2D5E
100
AcDbEntity
  8
2-線
 62
     0
370
    -2
100
AcDbLine
 10
192.0
 20
201.9999980926514
 30
0.0
 11
192.0
 21
205.7462993091925
 31
0.0
  0
LINE
  5
2D60
330
2D5E
100
AcDbEntity
  8
2-線
 62
     0
370
    -2
100
AcDbLine
 10
216.0000016061874
 20
201.9999980926514
 30
0.0
 11
216.0000016061874
 21
205.7462993091925
 31
0.0
  0
LINE
  5
2D61
330
2D5E
100
AcDbEntity
  8
2-線
 62
     0
370
    -2
100
AcDbLine
 10
194.5
 20
204.7462993091925
 30
0.0
 11
213.5000016061874
 21
204.7462993091925
 31
0.0
  0
INSERT
  5
2D62
330
2D5E
100
AcDbEntity
  8
2-線
 62
     0
370
    -2
100
AcDbBlockReference
  2
_Open30
 10
192.0
 20
204.7462993091925
 30
0.0
 41
2.5
 42
2.5
 43
2.5
 50
180.0
  0
INSERT
  5
2D63
330
2D5E
100
AcDbEntity
  8
2-線
 62
     0
370
    -2
100
AcDbBlockReference
  2
_Open30
 10
216.0000016061874
 20
204.7462993091925
 30
0.0
 41
2.5
 42
2.5
 43
2.5
  0
MTEXT
  5
2D64
330
2D5E
100
AcDbEntity
  8
2-線
 62
     0
100
AcDbMText
 10
204.0000008030937
 20
207.2462993091925
 30
0.0
 40
3.0
 41
0.0
 71
     5
 72
     1
  1
24
 73
     1
 44
1.0
  0
POINT
  5
2D65
330
2D5E
100
AcDbEntity
  8
Defpoints
 62
     0
100
AcDbPoint
 10
192.0
 20
201.9999980926514
 30
0.0
  0
POINT
  5
2D66
330
2D5E
100
AcDbEntity
  8
Defpoints
 62
     0
100
AcDbPoint
 10
216.0000016061874
 20
201.9999980926514
 30
0.0
  0
POINT
  5
2D67
330
2D5E
100
AcDbEntity
  8
Defpoints
 62
     0
100
AcDbPoint
 10
216.0000016061874
 20
204.7462993091925
 30
0.0
  0
ENDBLK
  5
2D69
330
2D5E
100
AcDbEntity
  8
0
100
AcDbBlockEnd
  0
BLOCK
  5
2D75
330
2D6B
100
AcDbEntity
  8
0
100
AcDbBlockBegin
  2
*D17
 70
     1
 10
0.0
 20
0.0
 30
0.0
  3
*D17
  1

  0
LINE
  5
2D6C
330
2D6B
100
AcDbEntity
  8
2-線
 62
     0
370
    -2
100
AcDbLine
 10
240.0
 20
201.9999980926514
 30
0.0
 11
240.0
 21
205.6810473688786
 31
0.0
  0
LINE
  5
2D6D
330
2D6B
100
AcDbEntity
  8
2-線
 62
     0
370
    -2
100
AcDbLine
 10
216.0000016061874
 20
201.9999980926514
 30
0.0
 11
216.0000016061874
 21
205.6810473688786
 31
0.0
  0
LINE
  5
2D6E
330
2D6B
100
AcDbEntity
  8
2-線
 62
     0
370
    -2
100
AcDbLine
 10
237.5
 20
204.6810473688786
 30
0.0
 11
218.5000016061874
 21
204.6810473688786
 31
0.0
  0
INSERT
  5
2D6F
330
2D6B
100
AcDbEntity
  8
2-線
 62
     0
370
    -2
100
AcDbBlockReference
  2
_Open30
 10
240.0
 20
204.6810473688786
 30
0.0
 41
2.5
 42
2.5
 43
2.5
  0
INSERT
  5
2D70
330
2D6B
100
AcDbEntity
  8
2-線
 62
     0
370
    -2
100
AcDbBlockReference
  2
_Open30
 10
216.0000016061874
 20
204.6810473688786
 30
0.0
 41
2.5
 42
2.5
 43
2.5
 50
180.0
  0
MTEXT
  5
2D71
330
2D6B
100
AcDbEntity
  8
2-線
 62
     0
100
AcDbMText
 10
228.0000008030937
 20
207.1810473688786
 30
0.0
 40
3.0
 41
0.0
 71
     5
 72
     1
  1
24
 73
     1
 44
1.0
  0
POINT
  5
2D72
330
2D6B
100
AcDbEntity
  8
Defpoints
 62
     0
100
AcDbPoint
 10
240.0
 20
201.9999980926514
 30
0.0
  0
POINT
  5
2D73
330
2D6B
100
AcDbEntity
  8
Defpoints
 62
     0
100
AcDbPoint
 10
216.0000016061874
 20
201.9999980926514
 30
0.0
  0
POINT
  5
2D74
330
2D6B
100
AcDbEntity
  8
Defpoints
 62
     0
100
AcDbPoint
 10
216.0000016061874
 20
204.6810473688786
 30
0.0
  0
ENDBLK
  5
2D76
330
2D6B
100
AcDbEntity
  8
0
100
AcDbBlockEnd
  0
ENDSEC
  0
SECTION
  2
ENTITIES
  0
MTEXT
  5
E68
330
1F
100
AcDbEntity
  8
1-線
100
AcDbMText
 10
312.9841260005437
 20
164.7217985525683
 30
0.0
 40
3.0
 41
15.0
 71
     7
 72
     1
  1

 73
     1
 44
1.0
  0
CIRCLE
  5
2855
330
1F
100
AcDbEntity
  8
3-線
100
AcDbCircle
 10
240.0
 20
196.0
 30
0.0
 40
3.999998637608598
  0
CIRCLE
  5
2856
330
1F
100
AcDbEntity
  8
3-線
100
AcDbCircle
 10
240.0
 20
196.0
 30
0.0
 40
2.499999999999928
  0
ARC
  5
2857
330
1F
100
AcDbEntity
  8
3-線
100
AcDbCircle
 10
217.9439905712476
 20
196.0
 30
0.0
 40
3.027349386569741
100
AcDbArc
 50
277.7073955908313
 51
82.29260440916871
  0
ARC
  5
2858
330
1F
100
AcDbEntity
  8
3-線
100
AcDbCircle
 10
218.3500000000001
 20
196.0
 30
0.0
 40
2.650000000000019
100
AcDbArc
 50
250.6299617544621
 51
109.3700382455448
  0
LINE
  5
2859
330
1F
100
AcDbEntity
  8
3-線
100
AcDbLine
 10
218.5000005621658
 20
198.1
 30
0.0
 11
218.4999994378344
 21
193.9
 31
0.0
  0
LINE
  5
285A
330
1F
100
AcDbEntity
  8
1-破線
100
AcDbLine
 10
227.5000005353964
 20
198.0
 30
0.0
 11
227.4999994646044
 21
194.0
 31
0.0
  0
LINE
  5
285B
330
1F
100
AcDbEntity
  8
3-線
100
AcDbLine
 10
228.0000006692453
 20
198.4999999999999
 30
0.0
 11
227.9999990630553
 21
192.499991937988
 31
0.0
  0
ARC
  5
285C
330
1F
100
AcDbEntity
  8
3-線
100
AcDbCircle
 10
224.0000000000003
 20
196.0
 30
0.0
 40
0.75
100
AcDbArc
 50
293.578333712415
 51
66.42168580241509
  0
LINE
  5
285D
330
1F
100
AcDbEntity
  8
3-線
100
AcDbLine
 10
223.7000017130736
 20
199.5492750377911
 30
0.0
 11
223.700002688281
 21
192.4500001405414
 31
0.0
  0
LINE
  5
285E
330
1F
100
AcDbEntity
  8
3-線
100
AcDbLine
 10
224.0000009501341
 20
193.94927656367
 30
0.0
 11
224.0000009501341
 21
199.5492750377911
 31
0.0
  0
LINE
  5
285F
330
1F
100
AcDbEntity
  8
3-線
100
AcDbLine
 10
224.300001140869
 20
199.5492750377911
 30
0.0
 11
224.3000023499372
 21
192.4495975173052
 31
0.0
  0
ARC
  5
2860
330
1F
100
AcDbEntity
  8
3-線
100
AcDbCircle
 10
224.0000000000003
 20
196.0
 30
0.0
 40
0.75
100
AcDbArc
 50
113.5780029198064
 51
246.4220128213139
  0
LINE
  5
2861
330
1F
100
AcDbEntity
  8
1-破線
100
AcDbLine
 10
204.5000026769804
 20
194.0
 30
0.0
 11
204.5000016061885
 21
198.0
 31
0.0
  0
LINE
  5
2862
330
1F
100
AcDbEntity
  8
3-線
100
AcDbLine
 10
207.2500010707919
 20
200.0000010217939
 30
0.0
 11
207.2499998259961
 21
195.3500004684714
 31
0.0
  0
LINE
  5
2863
330
1F
100
AcDbEntity
  8
3-線
100
AcDbLine
 10
208.7500010707918
 20
200.0000006357832
 30
0.0
 11
208.7499998259961
 21
195.3500000669245
 31
0.0
  0
LINE
  5
2866
330
1F
100
AcDbEntity
  8
3-線
100
AcDbLine
 10
204.0000010399037
 20
199.5000018019977
 30
0.0
 11
204.0000006074679
 21
192.4999982597793
 31
0.0
  0
LINE
  5
2867
330
1F
100
AcDbEntity
  8
3-線
100
AcDbLine
 10
211.0000010707917
 20
200.0
 30
0.0
 11
210.9999989292079
 21
192.0
 31
0.0
  0
ARC
  5
2868
330
1F
100
AcDbEntity
  8
3-線
100
AcDbCircle
 10
216.0
 20
196.0
 30
0.0
 40
2.5
100
AcDbArc
 50
270.0
 51
89.99998466203544
  0
CIRCLE
  5
2869
330
1F
100
AcDbEntity
  8
3-線
100
AcDbCircle
 10
216.0
 20
196.0
 30
0.0
 40
1.399999999999999
  0
CIRCLE
  5
286D
330
1F
100
AcDbEntity
  8
3-線
100
AcDbCircle
 10
192.0
 20
196.0
 30
0.0
 40
2.499999999999928
  0
CIRCLE
  5
286E
330
1F
100
AcDbEntity
  8
3-線
100
AcDbCircle
 10
192.0
 20
196.0
 30
0.0
 40
2.000000000001629
  0
CIRCLE
  5
286F
330
1F
100
AcDbEntity
  8
3-線
100
AcDbCircle
 10
192.0
 20
196.0
 30
0.0
 40
3.999998637608344
  0
CIRCLE
  5
2872
330
1F
100
AcDbEntity
  8
3-線
100
AcDbCircle
 10
240.0
 20
196.0
 30
0.0
 40
2.000000000000014
  0
LINE
  5
2880
330
1F
100
AcDbEntity
  8
3-線
100
AcDbLine
 10
223.599999830165
 20
195.3655712300566
 30
0.0
 11
223.599998929207
 21
191.9999947531195
 31
0.0
  0
LINE
  5
2881
330
1F
100
AcDbEntity
  8
3-線
100
AcDbLine
 10
224.399999830165
 20
195.3655710158983
 30
0.0
 11
224.3999989292069
 21
191.9999945389611
 31
0.0
  0
ARC
  5
2882
330
1F
100
AcDbEntity
  8
3-線
100
AcDbCircle
 10
223.8500026942412
 20
192.4500003814697
 30
0.0
 40
0.1500000059604645
100
AcDbArc
 50
180.0000920278224
 51
0.2767705205276528
  0
CIRCLE
  5
2883
330
1F
100
AcDbEntity
  8
3-線
100
AcDbCircle
 10
207.8500026942406
 20
192.4500003814697
 30
0.0
 40
0.1500000059604645
  0
CIRCLE
  5
2884
330
1F
100
AcDbEntity
  8
3-線
100
AcDbCircle
 10
208.1500028849755
 20
192.4500003814697
 30
0.0
 40
0.1500000059604645
  0
LINE
  5
2885
330
1F
100
AcDbEntity
  8
3-線
100
AcDbLine
 10
207.2499994646037
 20
194.0
 30
0.0
 11
207.2499989292075
 21
191.9999991299816
 31
0.0
  0
LINE
  5
2886
330
1F
100
AcDbEntity
  8
3-線
100
AcDbLine
 10
208.7499994646038
 20
194.0
 30
0.0
 11
208.7499989292075
 21
191.9999987284346
 31
0.0
  0
LINE
  5
2887
330
1F
100
AcDbEntity
  8
3-線
100
AcDbLine
 10
213.5000010707918
 20
192.0
 30
0.0
 11
213.5000008030938
 21
193.0
 31
0.0
  0
LINE
  5
2888
330
1F
100
AcDbEntity
  8
3-線
100
AcDbLine
 10
208.3999990898266
 20
192.6
 30
0.0
 11
208.3999989292078
 21
192.0
 31
0.0
  0
LINE
  5
2889
330
1F
100
AcDbEntity
  8
3-線
100
AcDbLine
 10
207.5999989292075
 20
191.9999990362872
 30
0.0
 11
207.5999990898266
 21
192.6
 31
0.0
  0
ARC
  5
288A
330
1F
100
AcDbEntity
  8
3-線
100
AcDbCircle
 10
214.9686258958048
 20
187.5
 30
0.0
 40
6.0
100
AcDbArc
 50
90.0
 51
131.4096221092708
  0
ARC
  5
288B
330
1F
100
AcDbEntity
  8
3-線
100
AcDbCircle
 10
224.1500028849761
 20
192.4500003814697
 30
0.0
 40
0.1500000059604645
100
AcDbArc
 50
180.0000306759278
 51
0.0000306759277829
  0
ARC
  5
288C
330
1F
100
AcDbEntity
  8
3-線
100
AcDbCircle
 10
227.4999990630554
 20
192.499992071837
 30
0.0
 40
0.5
100
AcDbArc
 50
269.9999537122094
 51
359.9999846620345
  0
ARC
  5
288D
330
1F
100
AcDbEntity
  8
3-線
100
AcDbCircle
 10
204.5000006074679
 20
192.499998228891
 30
0.0
 40
0.5
100
AcDbArc
 50
179.9999964604662
 51
270.0000156118611
  0
LINE
  5
288E
330
1F
100
AcDbEntity
  8
3-線
100
AcDbLine
 10
223.5999989292071
 20
191.9999952225469
 30
0.0
 11
213.4999989292089
 21
192.0000033820777
 31
0.0
  0
LINE
  5
288F
330
1F
100
AcDbEntity
  8
3-線
100
AcDbLine
 10
208.3999989292078
 20
192.0
 30
0.0
 11
210.9999989292079
 21
192.0
 31
0.0
  0
LINE
  5
2890
330
1F
100
AcDbEntity
  8
3-線
100
AcDbLine
 10
227.4999986591182
 20
191.9999920718372
 30
0.0
 11
224.3999989292069
 21
191.9999945762474
 31
0.0
  0
LINE
  5
2891
330
1F
100
AcDbEntity
  8
3-線
100
AcDbLine
 10
204.500000743707
 20
191.999998228891
 30
0.0
 11
207.5999989292075
 21
191.9999990735735
 31
0.0
  0
LINE
  5
2892
330
1F
100
AcDbEntity
  8
3-線
100
AcDbLine
 10
213.5000008030938
 20
193.0
 30
0.0
 11
213.8276885648654
 21
193.3905230673403
 31
0.0
  0
LINE
  5
2893
330
1F
100
AcDbEntity
  8
3-線
100
AcDbLine
 10
213.5000008030938
 20
193.0
 30
0.0
 11
218.3500008030941
 21
193.0
 31
0.0
  0
LINE
  5
2894
330
1F
100
AcDbEntity
  8
3-線
100
AcDbLine
 10
218.4999994378344
 20
193.9
 30
0.0
 11
218.0999993307551
 21
193.5
 31
0.0
  0
LINE
  5
2895
330
1F
100
AcDbEntity
  8
3-線
100
AcDbLine
 10
218.0999993307551
 20
193.5
 30
0.0
 11
214.9686258958048
 21
193.5
 31
0.0
  0
LINE
  5
2896
330
1F
100
AcDbEntity
  8
1-破線
100
AcDbLine
 10
227.9999993307555
 20
193.5
 30
0.0
 11
227.4999994646044
 21
194.0
 31
0.0
  0
LINE
  5
2897
330
1F
100
AcDbEntity
  8
3-線
100
AcDbLine
 10
223.7000026608082
 20
192.6499958774491
 30
0.0
 11
223.599999103211
 21
192.6499959309906
 31
0.0
  0
LINE
  5
2898
330
1F
100
AcDbEntity
  8
3-線
100
AcDbLine
 10
208.4999994646038
 20
194.0
 30
0.0
 11
211.0000005353958
 21
194.0
 31
0.0
  0
LINE
  5
2899
330
1F
100
AcDbEntity
  8
3-線
100
AcDbLine
 10
207.2499998259961
 20
195.3500004684715
 30
0.0
 11
208.7499998259961
 21
195.3500000669245
 31
0.0
  0
LINE
  5
289A
330
1F
100
AcDbEntity
  8
3-線
100
AcDbLine
 10
207.4999997590715
 20
195.1000002676979
 30
0.0
 11
207.2499998259961
 21
195.3500004684715
 31
0.0
  0
LINE
  5
289B
330
1F
100
AcDbEntity
  8
3-線
100
AcDbLine
 10
208.4999997590716
 20
195.1
 30
0.0
 11
208.7499998259961
 21
195.3500000669245
 31
0.0
  0
LINE
  5
289C
330
1F
100
AcDbEntity
  8
3-線
100
AcDbLine
 10
207.4999997590715
 20
195.1000002676979
 30
0.0
 11
207.4999990898265
 21
192.6
 31
0.0
  0
LINE
  5
289D
330
1F
100
AcDbEntity
  8
3-線
100
AcDbLine
 10
208.4999997590716
 20
195.1
 30
0.0
 11
208.4999990898266
 21
192.6
 31
0.0
  0
LINE
  5
289E
330
1F
100
AcDbEntity
  8
3-線
100
AcDbLine
 10
207.4999997590715
 20
195.1
 30
0.0
 11
208.4999997590716
 21
195.1
 31
0.0
  0
LINE
  5
289F
330
1F
100
AcDbEntity
  8
1-破線
100
AcDbLine
 10
204.0000006692445
 20
193.5
 30
0.0
 11
204.5000005353955
 21
194.0
 31
0.0
  0
LINE
  5
28A0
330
1F
100
AcDbEntity
  8
3-線
100
AcDbLine
 10
204.5000005353955
 20
194.0
 30
0.0
 11
207.4999994646037
 21
194.0
 31
0.0
  0
LINE
  5
28A1
330
1F
100
AcDbEntity
  8
3-線
100
AcDbLine
 10
224.3999991032108
 20
192.6499955026739
 30
0.0
 11
224.3000023158096
 21
192.6499955562117
 31
0.0
  0
LINE
  5
28A2
330
1F
100
AcDbEntity
  8
3-線
100
AcDbLine
 10
207.4999990898265
 20
192.6
 30
0.0
 11
208.4999990898266
 21
192.6
 31
0.0
  0
LINE
  5
28A3
330
1F
100
AcDbEntity
  8
3-線
100
AcDbLine
 10
214.9686258958048
 20
193.5
 30
0.0
 11
216.0
 21
193.5
 31
0.0
  0
LINE
  5
28A5
330
1F
100
AcDbEntity
  8
3-線
100
AcDbLine
 10
218.5000005621658
 20
198.1
 30
0.0
 11
218.1000006692451
 21
198.5
 31
0.0
  0
LINE
  5
28A6
330
1F
100
AcDbEntity
  8
1-破線
100
AcDbLine
 10
228.0000006692454
 20
198.5
 30
0.0
 11
227.5000005353964
 21
198.0
 31
0.0
  0
LINE
  5
28A7
330
1F
100
AcDbEntity
  8
1-破線
100
AcDbLine
 10
204.0000006692445
 20
198.5
 30
0.0
 11
204.5000005353955
 21
198.0
 31
0.0
  0
LINE
  5
28A8
330
1F
100
AcDbEntity
  8
3-線
100
AcDbLine
 10
223.6000010707913
 20
199.9999966604682
 30
0.0
 11
223.6000001698357
 21
196.6344289841016
 31
0.0
  0
LINE
  5
28A9
330
1F
100
AcDbEntity
  8
3-線
100
AcDbLine
 10
224.4000010707913
 20
199.9999964463098
 30
0.0
 11
224.4000001698356
 21
196.6344287699433
 31
0.0
  0
ARC
  5
28AA
330
1F
100
AcDbEntity
  8
3-線
100
AcDbCircle
 10
214.9686258958048
 20
204.5
 30
0.0
 40
6.0
100
AcDbArc
 50
228.5903778907291
 51
270.0
  0
LINE
  5
28AB
330
1F
100
AcDbEntity
  8
3-線
100
AcDbLine
 10
208.7500005353957
 20
198.0
 30
0.0
 11
211.0000005353958
 21
198.0
 31
0.0
  0
LINE
  5
28AC
330
1F
100
AcDbEntity
  8
3-線
100
AcDbLine
 10
204.5000005353955
 20
198.0
 30
0.0
 11
207.2500005353957
 21
198.0
 31
0.0
  0
LINE
  5
28B4
330
1F
100
AcDbEntity
  8
3-線
100
AcDbLine
 10
213.5000008030938
 20
199.0
 30
0.0
 11
218.3500008030941
 21
199.0
 31
0.0
  0
LINE
  5
28B5
330
1F
100
AcDbEntity
  8
3-線
100
AcDbLine
 10
213.5000008030938
 20
199.0
 30
0.0
 11
213.8276885648654
 21
198.6094769326596
 31
0.0
  0
LINE
  5
28B6
330
1F
100
AcDbEntity
  8
3-線
100
AcDbLine
 10
214.9686258958048
 20
198.5
 30
0.0
 11
218.1000006692451
 21
198.5
 31
0.0
  0
LINE
  5
28B7
330
1F
100
AcDbEntity
  8
3-線
100
AcDbLine
 10
223.700001740448
 20
199.3499958774506
 30
0.0
 11
223.6000008967874
 21
199.3499959309906
 31
0.0
  0
ARC
  5
28B8
330
1F
100
AcDbEntity
  8
3-線
100
AcDbCircle
 10
224.1500028849761
 20
199.5499996185303
 30
0.0
 40
0.1500000059604645
100
AcDbArc
 50
359.9999693240722
 51
179.9999693240722
  0
ARC
  5
28B9
330
1F
100
AcDbEntity
  8
3-線
100
AcDbCircle
 10
223.8500026942412
 20
199.5499996185303
 30
0.0
 40
0.1500000059604645
100
AcDbArc
 50
359.7232294794724
 51
179.9999079721775
  0
CIRCLE
  5
28BA
330
1F
100
AcDbEntity
  8
3-線
100
AcDbCircle
 10
207.8500026942406
 20
199.5499996185303
 30
0.0
 40
0.1500000059604645
  0
CIRCLE
  5
28BB
330
1F
100
AcDbEntity
  8
3-線
100
AcDbCircle
 10
208.1500028849755
 20
199.5499996185303
 30
0.0
 40
0.1500000059604645
  0
LINE
  5
28BC
330
1F
100
AcDbEntity
  8
3-線
100
AcDbLine
 10
207.2500008298634
 20
199.1
 30
0.0
 11
208.7500008298634
 21
199.099999598453
 31
0.0
  0
LINE
  5
28BD
330
1F
100
AcDbEntity
  8
3-線
100
AcDbLine
 10
208.4500006692448
 20
199.4
 30
0.0
 11
208.7500008298634
 21
199.099999598453
 31
0.0
  0
LINE
  5
28BE
330
1F
100
AcDbEntity
  8
3-線
100
AcDbLine
 10
207.5500009101728
 20
199.4
 30
0.0
 11
207.2500008298634
 21
199.1
 31
0.0
  0
ARC
  5
28BF
330
1F
100
AcDbEntity
  8
3-線
100
AcDbCircle
 10
227.5000009369422
 20
199.4999956140559
 30
0.0
 40
0.5
100
AcDbArc
 50
359.9999846620345
 51
89.99998493593158
  0
ARC
  5
28C0
330
1F
100
AcDbEntity
  8
3-線
100
AcDbCircle
 10
204.5000010399038
 20
199.5000017711094
 30
0.0
 40
0.5
100
AcDbArc
 50
89.99998438813904
 51
179.9999964604662
  0
LINE
  5
28C1
330
1F
100
AcDbEntity
  8
3-線
100
AcDbLine
 10
223.6000010707913
 20
199.9999966394344
 30
0.0
 11
213.5000010707916
 21
199.999999294902
 31
0.0
  0
LINE
  5
28C2
330
1F
100
AcDbEntity
  8
3-線
100
AcDbLine
 10
213.5000010707918
 20
200.0
 30
0.0
 11
213.5000008030938
 21
199.0
 31
0.0
  0
LINE
  5
28C3
330
1F
100
AcDbEntity
  8
3-線
100
AcDbLine
 10
208.4000010707919
 20
200.0000007084437
 30
0.0
 11
211.0000010707917
 21
200.0
 31
0.0
  0
LINE
  5
28C4
330
1F
100
AcDbEntity
  8
3-線
100
AcDbLine
 10
228.0000009369422
 20
199.4999954802068
 30
0.0
 11
228.0000006692454
 21
198.5
 31
0.0
  0
LINE
  5
28C5
330
1F
100
AcDbEntity
  8
3-線
100
AcDbLine
 10
227.500001068401
 20
199.9999956140558
 30
0.0
 11
224.4000010707913
 21
199.9999964291004
 31
0.0
  0
LINE
  5
28C6
330
1F
100
AcDbEntity
  8
3-線
100
AcDbLine
 10
224.4000008967874
 20
199.3499955026739
 30
0.0
 11
224.3000011748061
 21
199.3499955562133
 31
0.0
  0
LINE
  5
28C7
330
1F
100
AcDbEntity
  8
3-線
100
AcDbLine
 10
208.4000009101728
 20
199.4
 30
0.0
 11
208.4000010707919
 21
200.0000007084438
 31
0.0
  0
LINE
  5
28C8
330
1F
100
AcDbEntity
  8
3-線
100
AcDbLine
 10
207.5500009101728
 20
199.4
 30
0.0
 11
208.4500006692448
 21
199.4
 31
0.0
  0
LINE
  5
28C9
330
1F
100
AcDbEntity
  8
3-線
100
AcDbLine
 10
207.6000010707919
 20
200.0000009436359
 30
0.0
 11
207.6000009101728
 21
199.4
 31
0.0
  0
LINE
  5
28CA
330
1F
100
AcDbEntity
  8
3-線
100
AcDbLine
 10
214.9686258958048
 20
198.5
 30
0.0
 11
216.0
 21
198.5
 31
0.0
  0
LINE
  5
28CB
330
1F
100
AcDbEntity
  8
3-線
100
AcDbLine
 10
204.5000011761429
 20
200.0000017711094
 30
0.0
 11
207.6000010707919
 21
200.0000009264265
 31
0.0
  0
LINE
  5
29F3
330
1F
100
AcDbEntity
  8
3-線
100
AcDbLine
 10
192.7500004963253
 20
197.8540494210021
 30
0.0
 11
192.7499998259963
 21
195.3500000669245
 31
0.0
  0
LINE
  5
29F4
330
1F
100
AcDbEntity
  8
3-線
100
AcDbLine
 10
191.2500004963253
 20
197.8540498225491
 30
0.0
 11
191.2499998259964
 21
195.3500004684714
 31
0.0
  0
LINE
  5
29F5
330
1F
100
AcDbEntity
  8
3-線
100
AcDbLine
 10
191.4999997590718
 20
195.1
 30
0.0
 11
192.4999997590718
 21
195.1
 31
0.0
  0
LINE
  5
29F6
330
1F
100
AcDbEntity
  8
3-線
100
AcDbLine
 10
192.4999997590718
 20
195.1
 30
0.0
 11
192.7499998259963
 21
195.3500000669245
 31
0.0
  0
LINE
  5
29F7
330
1F
100
AcDbEntity
  8
3-線
100
AcDbLine
 10
191.4999997590718
 20
195.1000002676979
 30
0.0
 11
191.2499998259964
 21
195.3500004684715
 31
0.0
  0
LINE
  5
29F8
330
1F
100
AcDbEntity
  8
3-線
100
AcDbLine
 10
191.2499998259964
 20
195.3500004684715
 30
0.0
 11
192.7499998259963
 21
195.3500000669245
 31
0.0
  0
LINE
  5
29F9
330
1F
100
AcDbEntity
  8
3-線
100
AcDbLine
 10
192.4999997590718
 20
195.1
 30
0.0
 11
192.4999994816051
 21
194.0635081930457
 31
0.0
  0
LINE
  5
29FA
330
1F
100
AcDbEntity
  8
3-線
100
AcDbLine
 10
191.4999997590718
 20
195.1000002676979
 30
0.0
 11
191.4999994816051
 21
194.0635084607436
 31
0.0
  0
LINE
  5
2A08
330
1F
100
AcDbEntity
  8
3-線
100
AcDbLine
 10
238.1459520095133
 20
196.7500040326416
 30
0.0
 11
240.6500013635851
 21
196.7499985862188
 31
0.0
  0
LINE
  5
2A09
330
1F
100
AcDbEntity
  8
3-線
100
AcDbLine
 10
238.1459487469441
 20
195.2500040326452
 30
0.0
 11
240.649998101016
 21
195.2499985862223
 31
0.0
  0
LINE
  5
2A0A
330
1F
100
AcDbEntity
  8
3-線
100
AcDbLine
 10
240.8999987786259
 20
195.4999980424599
 30
0.0
 11
241.9364905855778
 21
195.4999957880424
 31
0.0
  0
LINE
  5
2A0B
330
1F
100
AcDbEntity
  8
3-線
100
AcDbLine
 10
240.900000953672
 20
196.4999980424576
 30
0.0
 11
241.9364927606239
 21
196.49999578804
 31
0.0
  0
LINE
  5
2A0C
330
1F
100
AcDbEntity
  8
3-線
100
AcDbLine
 10
240.6499981010159
 20
195.2499985862223
 30
0.0
 11
240.6500013635851
 21
196.7499985862188
 31
0.0
  0
LINE
  5
2A0D
330
1F
100
AcDbEntity
  8
3-線
100
AcDbLine
 10
240.8999987786259
 20
195.4999980424599
 30
0.0
 11
240.6499981010159
 21
195.2499985862223
 31
0.0
  0
LINE
  5
2A0E
330
1F
100
AcDbEntity
  8
3-線
100
AcDbLine
 10
240.900000953672
 20
196.4999980424576
 30
0.0
 11
240.6500013635851
 21
196.7499985862188
 31
0.0
  0
LINE
  5
2A0F
330
1F
100
AcDbEntity
  8
3-線
100
AcDbLine
 10
240.8999990463239
 20
195.4999980424593
 30
0.0
 11
240.900000953672
 21
196.4999980424576
 31
0.0
  0
LINE
  5
2CBF
330
1F
100
AcDbEntity
  8
1-破線
100
AcDbLine
 10
227.5000005353948
 20
197.9999938429462
 30
0.0
 11
220.0885363832656
 21
197.9999978110143
 31
0.0
  0
LINE
  5
2CC0
330
1F
100
AcDbEntity
  8
1-破線
100
AcDbLine
 10
227.5000056216599
 20
193.9999938429429
 30
0.0
 11
220.0885313468733
 21
193.9999978110163
 31
0.0
  0
VIEWPORT
  5
23E8
330
23
100
AcDbEntity
 67
     1
  8
0
100
AcDbViewport
 10
4.799458060677594
 20
4.021899493660511
 30
0.0
 40
16.91665644184231
 41
8.992999745766947
 68
     1
 69
     1
 12
4.799458060677594
 22
4.021899493660511
 13
0.0
 23
0.0
 14
10.0
 24
10.0
 15
10.0
 25
10.0
 16
0.0
 26
0.0
 36
1.0
 17
0.0
 27
0.0
 37
0.0
 42
50.0
 43
0.0
 44
0.0
 45
8.992999745766947
 50
0.0
 51
0.0
 72
   100
 90
    32800
  1

281
     0
 71
     1
 74
     0
110
0.0
120
0.0
130
0.0
111
1.0
121
0.0
131
0.0
112
0.0
122
1.0
132
0.0
 79
     0
146
0.0
170
     0
  0
VIEWPORT
  5
23EA
330
23
100
AcDbEntity
 67
     1
  8
1-線
100
AcDbViewport
 10
4.799458285954992
 20
4.021899549979861
 30
0.0
 40
7.679133257527986
 41
6.43503927996778
 68
     2
 69
     2
 12
210.0000019558372
 22
148.5000013830561
 13
0.0
 23
0.0
 14
4.0
 24
4.0
 15
8.0
 25
8.0
 16
0.0
 26
0.0
 36
1.0
 17
0.0
 27
0.0
 37
0.0
 42
50.0
 43
0.0
 44
0.0
 45
356.8207987134424
 50
0.0
 51
0.0
 72
   100
 90
    33376
  1

281
     0
 71
     1
 74
     0
110
0.0
120
0.0
130
0.0
111
1.0
121
0.0
131
0.0
112
0.0
122
1.0
132
0.0
 79
     0
146
0.0
170
     0
  0
ENDSEC
  0
SECTION
  2
OBJECTS
  0
DICTIONARY
  5
C
330
0
100
AcDbDictionary
281
     1
  3
ACAD_COLOR
350
2C98
  3
ACAD_GROUP
350
D
  3
ACAD_LAYOUT
350
1A
  3
ACAD_MATERIAL
350
2C97
  3
ACAD_MLINESTYLE
350
17
  3
ACAD_PLOTSETTINGS
350
19
  3
ACAD_PLOTSTYLENAME
350
E
  3
AcDbVariableDictionary
350
985
  0
DICTIONARY
  5
474
330
1F
100
AcDbDictionary
280
     1
281
     1
  3
ACAD_LAYOUTSELFREF
360
4B6
  0
DICTIONARY
  5
478
330
23
100
AcDbDictionary
280
     1
281
     1
  3
ACAD_LAYOUTSELFREF
360
4B7
  0
DICTIONARY
  5
476
330
1B
100
AcDbDictionary
280
     1
281
     1
  3
ACAD_LAYOUTSELFREF
360
4B5
  0
DICTIONARY
  5
2C98
102
{ACAD_REACTORS
330
C
102
}
330
C
100
AcDbDictionary
281
     1
  0
DICTIONARY
  5
D
102
{ACAD_REACTORS
330
C
102
}
330
C
100
AcDbDictionary
281
     1
  0
DICTIONARY
  5
1A
102
{ACAD_REACTORS
330
C
102
}
330
C
100
AcDbDictionary
281
     1
  3
Model
350
22
  3
ﾚｲｱｳﾄ1
350
1E
  3
ﾚｲｱｳﾄ2
350
26
  0
DICTIONARY
  5
2C97
102
{ACAD_REACTORS
330
C
102
}
330
C
100
AcDbDictionary
281
     1
  0
DICTIONARY
  5
17
102
{ACAD_REACTORS
330
C
102
}
330
C
100
AcDbDictionary
281
     1
  3
Standard
350
18
  0
DICTIONARY
  5
19
102
{ACAD_REACTORS
330
C
102
}
330
C
100
AcDbDictionary
281
     1
  3
Kyouwa-A3
350
21F2
  0
ACDBDICTIONARYWDFLT
  5
E
102
{ACAD_REACTORS
330
C
102
}
330
C
100
AcDbDictionary
281
     1
  3
Normal
350
F
100
AcDbDictionaryWithDefault
340
F
1001
ACAD
1000
TREAT_AS_HARD
1070
     0
  0
DICTIONARY
  5
985
102
{ACAD_REACTORS
330
C
102
}
330
C
100
AcDbDictionary
281
     1
  3
DIMASSOC
350
2CB8
  3
PROJECTNAME
350
2CB9
  3
SORTENTS
350
986
  0
XRECORD
  5
4B6
102
{ACAD_REACTORS
330
474
102
}
330
474
100
AcDbXrecord
280
     1
340
1F
  0
XRECORD
  5
4B7
102
{ACAD_REACTORS
330
478
102
}
330
478
100
AcDbXrecord
280
     1
340
23
  0
XRECORD
  5
4B5
102
{ACAD_REACTORS
330
476
102
}
330
476
100
AcDbXrecord
280
     1
340
1B
  0
LAYOUT
  5
22
102
{ACAD_REACTORS
330
1A
102
}
330
1A
100
AcDbPlotSettings
  1
Kyouwa-A3
  2
HP DesignJet 430 (D_A1) by HP1.pc3
  4
User269
  6
OLE1
 40
4.995333194732666
 41
16.93333625793457
 42
4.995330810546875
 43
16.93331909179687
 44
296.9259948730469
 45
419.8619995117185
 46
-5.0
 47
-25.0
 48
0.0
 49
0.0
140
0.0
141
0.0
142
1.0
143
1.0
 70
 11952
 72
     1
 73
     1
 74
     2
  7
monochrome.ctb
 75
    16
147
1.0
 76
     0
 77
     2
 78
   300
148
0.0
149
0.0
100
AcDbLayout
  1
Model
 70
     1
 71
     0
 10
0.0
 20
0.0
 11
12.0
 21
9.0
 12
0.0
 22
0.0
 32
0.0
 14
0.0
 24
0.0
 34
0.0
 15
0.0
 25
0.0
 35
0.0
146
0.0
 13
0.0
 23
0.0
 33
0.0
 16
1.0
 26
0.0
 36
0.0
 17
0.0
 27
1.0
 37
0.0
 76
     0
330
1F
  0
LAYOUT
  5
1E
102
{ACAD_REACTORS
330
1A
102
}
330
1A
100
AcDbPlotSettings
  1

  2
C:\PROGRAM FILES\AUTOCAD LT 2000I\plotters\DWF Classic.pc3
  4

  6

 40
0.0
 41
0.0
 42
0.0
 43
0.0
 44
0.0
 45
0.0
 46
0.0
 47
0.0
 48
0.0
 49
0.0
140
0.0
141
0.0
142
1.0
143
1.0
 70
   688
 72
     0
 73
     0
 74
     5
  7
monochrome.ctb
 75
    16
147
1.0
 76
     0
 77
     2
 78
   300
148
0.0
149
0.0
100
AcDbLayout
  1
ﾚｲｱｳﾄ1
 70
     1
 71
     1
 10
0.0
 20
0.0
 11
420.0
 21
297.0
 12
0.0
 22
0.0
 32
0.0
 14
1.000000000000000E+20
 24
1.000000000000000E+20
 34
1.000000000000000E+20
 15
-1.000000000000000E+20
 25
-1.000000000000000E+20
 35
-1.000000000000000E+20
146
0.0
 13
0.0
 23
0.0
 33
0.0
 16
1.0
 26
0.0
 36
0.0
 17
0.0
 27
1.0
 37
0.0
 76
     0
330
1B
  0
LAYOUT
  5
26
102
{ACAD_REACTORS
330
1A
102
}
330
1A
100
AcDbPlotSettings
  1

  2
C:\PROGRAM FILES\AUTOCAD LT 2000I\plotters\DWF Classic.pc3
  4
ANSI_A_(8.50_x_11.00_Inches)
  6

 40
5.793749809265136
 41
17.79375076293945
 42
5.793746948242187
 43
17.79376220703125
 44
215.8999938964844
 45
279.3999938964844
 46
0.0
 47
0.0
 48
0.0
 49
0.0
140
0.0
141
0.0
142
1.0
143
1.0
 70
   688
 72
     0
 73
     1
 74
     5
  7
monochrome.ctb
 75
    16
147
1.0
 76
     0
 77
     2
 78
   300
148
0.0
149
0.0
100
AcDbLayout
  1
ﾚｲｱｳﾄ2
 70
     1
 71
     2
 10
-0.7005418191744587
 20
-0.2281003861915408
 11
10.29945794052965
 21
8.271899373512567
 12
0.0
 22
0.0
 32
0.0
 14
0.9598916571909988
 24
0.8043799099959727
 34
0.0
 15
8.639024914718985
 25
7.239419189963752
 35
0.0
146
0.0
 13
0.0
 23
0.0
 33
0.0
 16
1.0
 26
0.0
 36
0.0
 17
0.0
 27
1.0
 37
0.0
 76
     0
330
23
331
23E8
  0
MLINESTYLE
  5
18
102
{ACAD_REACTORS
330
17
102
}
330
17
100
AcDbMlineStyle
  2
STANDARD
 70
     0
  3

 62
   256
 51
90.0
 52
90.0
 71
     2
 49
0.5
 62
   256
  6
BYLAYER
 49
-0.5
 62
   256
  6
BYLAYER
  0
PLOTSETTINGS
  5
21F2
102
{ACAD_REACTORS
330
19
102
}
330
19
100
AcDbPlotSettings
  1
Kyouwa-A3
  2
HP DesignJet 430.pc3
  4
User269
  6
OLE1
 40
4.995333194732666
 41
16.93333625793457
 42
4.995330810546875
 43
16.93331909179687
 44
296.9259948730469
 45
419.8619995117185
 46
-5.0
 47
-25.0
 48
0.0
 49
0.0
140
0.0
141
0.0
142
1.0
143
1.0
 70
  1712
 72
     1
 73
     1
 74
     2
  7
monochrome.ctb
 75
    16
147
1.0
 76
     0
 77
     2
 78
   300
148
0.0
149
0.0
  0
ACDBPLACEHOLDER
  5
F
102
{ACAD_REACTORS
330
E
102
}
330
E
  0
DICTIONARYVAR
  5
2CB8
102
{ACAD_REACTORS
330
985
102
}
330
985
100
DictionaryVariables
280
     0
  1
1
  0
DICTIONARYVAR
  5
2CB9
102
{ACAD_REACTORS
330
985
102
}
330
985
100
DictionaryVariables
280
     0
  1

  0
DICTIONARYVAR
  5
986
102
{ACAD_REACTORS
330
985
102
}
330
985
100
DictionaryVariables
280
     0
  1
96
  0
ENDSEC
  0
EOF
