  0
SECTION
  2
HEADER
  9
$ACADVER
  1
AC1018
  9
$ACADMAINTVER
 70
     2
  9
$DWGCODEPAGE
  3
ANSI_932
  9
$INSBASE
 10
0.0
 20
0.0
 30
0.0
  9
$EXTMIN
 10
30.49255472432424
 20
162.4807900652298
 30
-0.0000000000000053
  9
$EXTMAX
 10
401.5237436321609
 20
229.5070043971145
 30
0.0000000000000099
  9
$LIMMIN
 10
0.0
 20
0.0
  9
$LIMMAX
 10
420.0
 20
297.0
  9
$ORTHOMODE
 70
     1
  9
$REGENMODE
 70
     1
  9
$FILLMODE
 70
     1
  9
$QTEXTMODE
 70
     0
  9
$MIRRTEXT
 70
     1
  9
$LTSCALE
 40
0.5
  9
$ATTMODE
 70
     1
  9
$TEXTSIZE
 40
3.0
  9
$TRACEWID
 40
1.0
  9
$TEXTSTYLE
  7
Standard
  9
$CLAYER
  8
1-線
  9
$CELTYPE
  6
ByLayer
  9
$CECOLOR
 62
   256
  9
$CELTSCALE
 40
1.0
  9
$DISPSILH
 70
     0
  9
$DIMSCALE
 40
1.0
  9
$DIMASZ
 40
2.5
  9
$DIMEXO
 40
0.0
  9
$DIMDLI
 40
3.75
  9
$DIMRND
 40
0.0
  9
$DIMDLE
 40
0.0
  9
$DIMEXE
 40
1.0
  9
$DIMTP
 40
0.0
  9
$DIMTM
 40
0.0
  9
$DIMTXT
 40
3.0
  9
$DIMCEN
 40
0.0
  9
$DIMTSZ
 40
0.0
  9
$DIMTOL
 70
     0
  9
$DIMLIM
 70
     0
  9
$DIMTIH
 70
     0
  9
$DIMTOH
 70
     0
  9
$DIMSE1
 70
     0
  9
$DIMSE2
 70
     0
  9
$DIMTAD
 70
     1
  9
$DIMZIN
 70
     8
  9
$DIMBLK
  1
Open30
  9
$DIMASO
 70
     1
  9
$DIMSHO
 70
     1
  9
$DIMPOST
  1

  9
$DIMAPOST
  1

  9
$DIMALT
 70
     0
  9
$DIMALTD
 70
     3
  9
$DIMALTF
 40
0.1
  9
$DIMLFAC
 40
1.0
  9
$DIMTOFL
 70
     1
  9
$DIMTVP
 40
0.0
  9
$DIMTIX
 70
     0
  9
$DIMSOXD
 70
     0
  9
$DIMSAH
 70
     0
  9
$DIMBLK1
  1

  9
$DIMBLK2
  1

  9
$DIMSTYLE
  2
Kyouwa
  9
$DIMCLRD
 70
     0
  9
$DIMCLRE
 70
     0
  9
$DIMCLRT
 70
     0
  9
$DIMTFAC
 40
0.7
  9
$DIMGAP
 40
1.0
  9
$DIMJUST
 70
     0
  9
$DIMSD1
 70
     0
  9
$DIMSD2
 70
     0
  9
$DIMTOLJ
 70
     0
  9
$DIMTZIN
 70
     8
  9
$DIMALTZ
 70
     0
  9
$DIMALTTZ
 70
     0
  9
$DIMUPT
 70
     0
  9
$DIMDEC
 70
     2
  9
$DIMTDEC
 70
     2
  9
$DIMALTU
 70
     2
  9
$DIMALTTD
 70
     3
  9
$DIMTXSTY
  7
Standard
  9
$DIMAUNIT
 70
     0
  9
$DIMADEC
 70
     0
  9
$DIMALTRND
 40
0.0
  9
$DIMAZIN
 70
     0
  9
$DIMDSEP
 70
    46
  9
$DIMATFIT
 70
     3
  9
$DIMFRAC
 70
     0
  9
$DIMLDRBLK
  1
Open30
  9
$DIMLUNIT
 70
     2
  9
$DIMLWD
 70
    -2
  9
$DIMLWE
 70
    -2
  9
$DIMTMOVE
 70
     0
  9
$LUNITS
 70
     2
  9
$LUPREC
 70
     4
  9
$SKETCHINC
 40
1.0
  9
$FILLETRAD
 40
1.0
  9
$AUNITS
 70
     0
  9
$AUPREC
 70
     0
  9
$MENU
  1
.
  9
$ELEVATION
 40
0.0
  9
$PELEVATION
 40
0.0
  9
$THICKNESS
 40
0.0
  9
$LIMCHECK
 70
     0
  9
$CHAMFERA
 40
0.0
  9
$CHAMFERB
 40
0.0
  9
$CHAMFERC
 40
20.0
  9
$CHAMFERD
 40
0.0
  9
$SKPOLY
 70
     0
  9
$TDCREATE
 40
2452108.402762732
  9
$TDUCREATE
 40
2452108.027762732
  9
$TDUPDATE
 40
2454348.762088935
  9
$TDUUPDATE
 40
2454348.387088935
  9
$TDINDWG
 40
1.4073821065
  9
$TDUSRTIMER
 40
1.4073819213
  9
$USRTIMER
 70
     1
  9
$ANGBASE
 50
0.0
  9
$ANGDIR
 70
     0
  9
$PDMODE
 70
     0
  9
$PDSIZE
 40
0.0
  9
$PLINEWID
 40
0.0
  9
$SPLFRAME
 70
     0
  9
$SPLINETYPE
 70
     6
  9
$SPLINESEGS
 70
     8
  9
$HANDSEED
  5
47AE
  9
$SURFTAB1
 70
     6
  9
$SURFTAB2
 70
     6
  9
$SURFTYPE
 70
     6
  9
$SURFU
 70
     6
  9
$SURFV
 70
     6
  9
$UCSBASE
  2

  9
$UCSNAME
  2

  9
$UCSORG
 10
0.0
 20
0.0
 30
0.0
  9
$UCSXDIR
 10
1.0
 20
0.0
 30
0.0
  9
$UCSYDIR
 10
0.0
 20
1.0
 30
0.0
  9
$UCSORTHOREF
  2

  9
$UCSORTHOVIEW
 70
     0
  9
$UCSORGTOP
 10
0.0
 20
0.0
 30
0.0
  9
$UCSORGBOTTOM
 10
0.0
 20
0.0
 30
0.0
  9
$UCSORGLEFT
 10
0.0
 20
0.0
 30
0.0
  9
$UCSORGRIGHT
 10
0.0
 20
0.0
 30
0.0
  9
$UCSORGFRONT
 10
0.0
 20
0.0
 30
0.0
  9
$UCSORGBACK
 10
0.0
 20
0.0
 30
0.0
  9
$PUCSBASE
  2

  9
$PUCSNAME
  2

  9
$PUCSORG
 10
0.0
 20
0.0
 30
0.0
  9
$PUCSXDIR
 10
1.0
 20
0.0
 30
0.0
  9
$PUCSYDIR
 10
0.0
 20
1.0
 30
0.0
  9
$PUCSORTHOREF
  2

  9
$PUCSORTHOVIEW
 70
     0
  9
$PUCSORGTOP
 10
0.0
 20
0.0
 30
0.0
  9
$PUCSORGBOTTOM
 10
0.0
 20
0.0
 30
0.0
  9
$PUCSORGLEFT
 10
0.0
 20
0.0
 30
0.0
  9
$PUCSORGRIGHT
 10
0.0
 20
0.0
 30
0.0
  9
$PUCSORGFRONT
 10
0.0
 20
0.0
 30
0.0
  9
$PUCSORGBACK
 10
0.0
 20
0.0
 30
0.0
  9
$USERI1
 70
     0
  9
$USERI2
 70
     0
  9
$USERI3
 70
     0
  9
$USERI4
 70
     0
  9
$USERI5
 70
     0
  9
$USERR1
 40
0.0
  9
$USERR2
 40
0.0
  9
$USERR3
 40
0.0
  9
$USERR4
 40
0.0
  9
$USERR5
 40
0.0
  9
$WORLDVIEW
 70
     1
  9
$SHADEDGE
 70
     3
  9
$SHADEDIF
 70
    70
  9
$TILEMODE
 70
     1
  9
$MAXACTVP
 70
    48
  9
$PINSBASE
 10
0.0
 20
0.0
 30
0.0
  9
$PLIMCHECK
 70
     0
  9
$PEXTMIN
 10
1.000000000000000E+20
 20
1.000000000000000E+20
 30
1.000000000000000E+20
  9
$PEXTMAX
 10
-1.000000000000000E+20
 20
-1.000000000000000E+20
 30
-1.000000000000000E+20
  9
$PLIMMIN
 10
0.0
 20
0.0
  9
$PLIMMAX
 10
420.0
 20
297.0
  9
$UNITMODE
 70
     0
  9
$VISRETAIN
 70
     1
  9
$PLINEGEN
 70
     0
  9
$PSLTSCALE
 70
     1
  9
$TREEDEPTH
 70
  3020
  9
$CMLSTYLE
  2
Standard
  9
$CMLJUST
 70
     0
  9
$CMLSCALE
 40
20.0
  9
$PROXYGRAPHICS
 70
     1
  9
$MEASUREMENT
 70
     0
  9
$CELWEIGHT
370
    -1
  9
$ENDCAPS
280
     0
  9
$JOINSTYLE
280
     0
  9
$LWDISPLAY
290
     0
  9
$INSUNITS
 70
     4
  9
$HYPERLINKBASE
  1

  9
$STYLESHEET
  1
MONOCHROME.CTB
  9
$XEDIT
290
     1
  9
$CEPSNTYPE
380
     0
  9
$PSTYLEMODE
290
     1
  9
$FINGERPRINTGUID
  2
{D5BDD00D-7A95-11D5-B0EC-00E0181A799A}
  9
$VERSIONGUID
  2
{02B8FED0-D5FD-4875-A79C-008E2371023F}
  9
$EXTNAMES
290
     1
  9
$PSVPSCALE
 40
0.0
  9
$OLESTARTUP
290
     0
  9
$SORTENTS
280
    96
  9
$INDEXCTL
280
     0
  9
$HIDETEXT
280
     0
  9
$XCLIPFRAME
290
     0
  9
$HALOGAP
280
     0
  9
$OBSCOLOR
 70
   257
  9
$OBSLTYPE
280
     0
  9
$INTERSECTIONDISPLAY
280
     0
  9
$INTERSECTIONCOLOR
 70
   257
  9
$DIMASSOC
280
     1
  9
$PROJECTNAME
  1

  0
ENDSEC
  0
SECTION
  2
CLASSES
  0
CLASS
  1
ACDBDICTIONARYWDFLT
  2
AcDbDictionaryWithDefault
  3
ObjectDBX Classes
 90
        0
 91
        1
280
     0
281
     0
  0
CLASS
  1
PLOTSETTINGS
  2
AcDbPlotSettings
  3
ObjectDBX Classes
 90
        0
 91
        1
280
     0
281
     0
  0
CLASS
  1
DICTIONARYVAR
  2
AcDbDictionaryVar
  3
ObjectDBX Classes
 90
        0
 91
        1
280
     0
281
     0
  0
ENDSEC
  0
SECTION
  2
TABLES
  0
TABLE
  2
VPORT
  5
8
330
0
100
AcDbSymbolTable
 70
     3
  0
VPORT
  5
47AD
330
8
100
AcDbSymbolTableRecord
100
AcDbViewportTableRecord
  2
*Active
 70
     0
 10
0.0
 20
0.0
 11
1.0
 21
1.0
 12
216.0081491782425
 22
195.9938972311722
 13
0.0
 23
0.0
 14
4.0
 24
4.0
 15
8.0
 25
8.0
 16
0.0
 26
0.0
 36
1.0
 17
0.0
 27
0.0
 37
0.0
 40
173.017033948318
 41
2.155234657039711
 42
50.0
 43
0.0
 44
0.0
 50
0.0
 51
0.0
 71
     0
 72
   100
 73
     1
 74
     3
 75
     0
 76
     1
 77
     0
 78
     0
281
     0
 65
     1
110
0.0
120
0.0
130
0.0
111
1.0
121
0.0
131
0.0
112
0.0
122
1.0
132
0.0
 79
     0
146
0.0
  0
ENDTAB
  0
TABLE
  2
LTYPE
  5
5
330
0
100
AcDbSymbolTable
 70
     5
  0
LTYPE
  5
14
330
5
100
AcDbSymbolTableRecord
100
AcDbLinetypeTableRecord
  2
ByBlock
 70
     0
  3

 72
    65
 73
     0
 40
0.0
  0
LTYPE
  5
15
330
5
100
AcDbSymbolTableRecord
100
AcDbLinetypeTableRecord
  2
ByLayer
 70
     0
  3

 72
    65
 73
     0
 40
0.0
  0
LTYPE
  5
16
330
5
100
AcDbSymbolTableRecord
100
AcDbLinetypeTableRecord
  2
Continuous
 70
     0
  3
Solid line
 72
    65
 73
     0
 40
0.0
  0
LTYPE
  5
2D
330
5
100
AcDbSymbolTableRecord
100
AcDbLinetypeTableRecord
  2
HIDDEN2
 70
     0
  3
Hidden (.5x) _ _ _ _ _ _ _ _ _ _ _ _ _ _ _ _ _
 72
    65
 73
     2
 40
4.762499999999998
 49
3.174999999999998
 74
     0
 49
-1.587499999999999
 74
     0
  0
LTYPE
  5
2E
330
5
100
AcDbSymbolTableRecord
100
AcDbLinetypeTableRecord
  2
CENTER2
 70
     0
  3
Center (.5x) ___ _ ___ _ ___ _ ___ _ ___ _ ___
 72
    65
 73
     4
 40
28.575
 49
19.05
 74
     0
 49
-3.174999999999998
 74
     0
 49
3.174999999999998
 74
     0
 49
-3.174999999999998
 74
     0
  0
LTYPE
  5
2F
330
5
100
AcDbSymbolTableRecord
100
AcDbLinetypeTableRecord
  2
PHANTOM2
 70
     0
  3
Phantom (.5x) ___ _ _ ___ _ _ ___ _ _ ___ _ _
 72
    65
 73
     6
 40
31.75
 49
15.875
 74
     0
 49
-3.174999999999998
 74
     0
 49
3.174999999999998
 74
     0
 49
-3.174999999999998
 74
     0
 49
3.174999999999998
 74
     0
 49
-3.174999999999998
 74
     0
  0
LTYPE
  5
FD
330
5
100
AcDbSymbolTableRecord
100
AcDbLinetypeTableRecord
  2
CENTER
 70
     0
  3
Center ____ _ ____ _ ____ _ ____ _ ____ _ ____
 72
    65
 73
     4
 40
50.8
 49
31.75
 74
     0
 49
-6.349999999999998
 74
     0
 49
6.349999999999998
 74
     0
 49
-6.349999999999998
 74
     0
  0
ENDTAB
  0
TABLE
  2
LAYER
  5
2
330
0
100
AcDbSymbolTable
 70
    17
  0
LAYER
  5
10
330
2
100
AcDbSymbolTableRecord
100
AcDbLayerTableRecord
  2
0
 70
     0
 62
     7
  6
Continuous
370
   100
390
F
  0
LAYER
  5
30
330
2
100
AcDbSymbolTableRecord
100
AcDbLayerTableRecord
  2
1-線
 70
     0
 62
     3
  6
Continuous
370
    18
390
F
  0
LAYER
  5
31
330
2
100
AcDbSymbolTableRecord
100
AcDbLayerTableRecord
  2
1-破線
 70
     0
 62
     3
  6
HIDDEN2
370
    18
390
F
  0
LAYER
  5
32
330
2
100
AcDbSymbolTableRecord
100
AcDbLayerTableRecord
  2
1-1点
 70
     0
 62
     3
  6
CENTER2
370
    18
390
F
  0
LAYER
  5
33
330
2
100
AcDbSymbolTableRecord
100
AcDbLayerTableRecord
  2
1-2点
 70
     0
 62
     3
  6
PHANTOM2
370
    18
390
F
  0
LAYER
  5
3A
330
2
100
AcDbSymbolTableRecord
100
AcDbLayerTableRecord
  2
2-1点
 70
     0
 62
     6
  6
CENTER2
370
    18
390
F
  0
LAYER
  5
3B
330
2
100
AcDbSymbolTableRecord
100
AcDbLayerTableRecord
  2
2-2点
 70
     0
 62
     6
  6
PHANTOM2
370
    18
390
F
  0
LAYER
  5
3C
330
2
100
AcDbSymbolTableRecord
100
AcDbLayerTableRecord
  2
2-線
 70
     0
 62
     6
  6
Continuous
370
    18
390
F
  0
LAYER
  5
3D
330
2
100
AcDbSymbolTableRecord
100
AcDbLayerTableRecord
  2
2-破線
 70
     0
 62
     6
  6
HIDDEN2
370
    18
390
F
  0
LAYER
  5
3E
330
2
100
AcDbSymbolTableRecord
100
AcDbLayerTableRecord
  2
3-線
 70
     0
 62
     4
  6
Continuous
370
    35
390
F
  0
LAYER
  5
40
330
2
100
AcDbSymbolTableRecord
100
AcDbLayerTableRecord
  2
4-線
 70
     0
 62
     2
  6
Continuous
370
    35
390
F
  0
LAYER
  5
41
330
2
100
AcDbSymbolTableRecord
100
AcDbLayerTableRecord
  2
5-線
 70
     0
 62
     5
  6
Continuous
370
    35
390
F
  0
LAYER
  5
42
330
2
100
AcDbSymbolTableRecord
100
AcDbLayerTableRecord
  2
5-破線
 70
     0
 62
     5
  6
HIDDEN2
370
    18
390
F
  0
LAYER
  5
43
330
2
100
AcDbSymbolTableRecord
100
AcDbLayerTableRecord
  2
6-線
 70
     0
 62
     1
  6
Continuous
370
    35
390
F
  0
LAYER
  5
44
330
2
100
AcDbSymbolTableRecord
100
AcDbLayerTableRecord
  2
6-破線
 70
     0
 62
     1
  6
HIDDEN2
370
    18
390
F
  0
LAYER
  5
FF
330
2
100
AcDbSymbolTableRecord
100
AcDbLayerTableRecord
  2
4
 70
     0
 62
     6
  6
Continuous
370
    18
390
F
  0
LAYER
  5
1DD
330
2
100
AcDbSymbolTableRecord
100
AcDbLayerTableRecord
  2
Defpoints
 70
     4
 62
     7
  6
Continuous
290
     0
370
    -3
390
F
  0
ENDTAB
  0
TABLE
  2
STYLE
  5
3
330
0
100
AcDbSymbolTable
 70
     3
  0
STYLE
  5
11
330
3
100
AcDbSymbolTableRecord
100
AcDbTextStyleTableRecord
  2
Standard
 70
     0
 40
0.0
 41
1.0
 50
0.0
 71
     0
 42
3.0
  3
txt.shx
  4
bigfont.shx
  0
STYLE
  5
2C
330
3
100
AcDbSymbolTableRecord
100
AcDbTextStyleTableRecord
  2

 70
     1
 40
0.0
 41
1.0
 50
0.0
 71
     0
 42
2.5
  3
ltypeshp.shx
  4

  0
STYLE
  5
9C
330
3
100
AcDbSymbolTableRecord
100
AcDbTextStyleTableRecord
  2
縦
 70
     4
 40
0.0
 41
1.0
 50
0.0
 71
     0
 42
2.799999999999998
  3
txt.shx
  4
bigfont.shx
  0
ENDTAB
  0
TABLE
  2
VIEW
  5
6
330
0
100
AcDbSymbolTable
 70
     1
  0
VIEW
  5
502
330
6
100
AcDbSymbolTableRecord
100
AcDbViewTableRecord
  2
OLE1
 70
     0
 40
233.3949522673788
 10
309.4656970073121
 20
48.01785105749138
 41
232.3911030103148
 11
0.0
 21
0.0
 31
1.0
 12
0.0
 22
0.0
 32
0.0
 42
50.0
 43
0.0
 44
0.0
 50
0.0
 71
     0
281
     0
 72
     0
  0
ENDTAB
  0
TABLE
  2
UCS
  5
7
330
0
100
AcDbSymbolTable
 70
     0
  0
ENDTAB
  0
TABLE
  2
APPID
  5
9
330
0
100
AcDbSymbolTable
 70
     1
  0
APPID
  5
12
330
9
100
AcDbSymbolTableRecord
100
AcDbRegAppTableRecord
  2
ACAD
 70
     0
  0
ENDTAB
  0
TABLE
  2
DIMSTYLE
  5
A
330
0
100
AcDbSymbolTable
 70
     3
100
AcDbDimStyleTable
 71
     1
340
1C8
  0
DIMSTYLE
105
27
330
A
100
AcDbSymbolTableRecord
100
AcDbDimStyleTableRecord
  2
ISO-25
 70
     0
 41
2.5
 42
0.625
 43
3.75
 44
1.25
 73
     0
 74
     0
 77
     1
 78
     8
140
2.5
141
2.5
143
0.03937007874016
147
0.625
171
     3
172
     1
271
     2
272
     2
274
     3
283
     0
284
     8
340
11
  0
DIMSTYLE
105
100
330
A
100
AcDbSymbolTableRecord
100
AcDbDimStyleTableRecord
  2
JIS
 70
     0
 41
2.5
 42
1.0
 43
7.0
 44
1.0
 73
     0
 74
     0
 77
     1
 78
     8
140
2.5
141
0.0
143
0.0394
147
0.0
172
     1
174
     1
175
     1
340
11
  0
DIMSTYLE
105
1C8
330
A
100
AcDbSymbolTableRecord
100
AcDbDimStyleTableRecord
  2
Kyouwa
 70
     0
 41
2.5
 42
0.0
 43
3.75
 44
1.0
 73
     0
 74
     0
 77
     1
 78
     8
140
3.0
141
0.0
143
0.1
146
0.7
147
1.0
171
     3
172
     1
271
     2
272
     2
274
     3
283
     0
284
     8
340
11
341
1C2
342
1C2
  0
ENDTAB
  0
TABLE
  2
BLOCK_RECORD
  5
1
330
0
100
AcDbSymbolTable
 70
    21
  0
BLOCK_RECORD
  5
1F
102
{ACAD_XDICTIONARY
360
474
102
}
330
1
100
AcDbSymbolTableRecord
100
AcDbBlockTableRecord
  2
*Model_Space
340
22
  0
BLOCK_RECORD
  5
1B
102
{ACAD_XDICTIONARY
360
476
102
}
330
1
100
AcDbSymbolTableRecord
100
AcDbBlockTableRecord
  2
*Paper_Space
340
1E
  0
BLOCK_RECORD
  5
23
102
{ACAD_XDICTIONARY
360
478
102
}
330
1
100
AcDbSymbolTableRecord
100
AcDbBlockTableRecord
  2
*Paper_Space0
340
26
  0
BLOCK_RECORD
  5
101
330
1
100
AcDbSymbolTableRecord
100
AcDbBlockTableRecord
  2
A$C77221E2E
340
0
  0
BLOCK_RECORD
  5
1C2
330
1
100
AcDbSymbolTableRecord
100
AcDbBlockTableRecord
  2
_Open30
340
0
102
{BLKREFS
331
457A
331
457B
331
4583
331
4584
331
458C
331
458D
331
4595
331
4596
331
459E
331
459F
331
45A7
331
45A8
331
45B9
331
45BA
331
45CB
331
45CC
331
46D2
331
46D3
331
46E4
331
46E5
331
4718
331
4719
331
4760
331
4761
331
4774
331
4775
331
4781
331
4782
331
478E
331
478F
102
}
  0
BLOCK_RECORD
  5
504
330
1
100
AcDbSymbolTableRecord
100
AcDbBlockTableRecord
  2
A$C56C037E7
340
0
  0
BLOCK_RECORD
  5
1BF1
330
1
100
AcDbSymbolTableRecord
100
AcDbBlockTableRecord
  2
A$C313832AB
340
0
  0
BLOCK_RECORD
  5
1F5E
330
1
100
AcDbSymbolTableRecord
100
AcDbBlockTableRecord
  2
A$C1D0B0400
340
0
  0
BLOCK_RECORD
  5
28EE
330
1
100
AcDbSymbolTableRecord
100
AcDbBlockTableRecord
  2
*D6
340
0
  0
BLOCK_RECORD
  5
296D
330
1
100
AcDbSymbolTableRecord
100
AcDbBlockTableRecord
  2
*D7
340
0
  0
BLOCK_RECORD
  5
29E7
330
1
100
AcDbSymbolTableRecord
100
AcDbBlockTableRecord
  2
*D8
340
0
  0
BLOCK_RECORD
  5
29F3
330
1
100
AcDbSymbolTableRecord
100
AcDbBlockTableRecord
  2
*D9
340
0
  0
BLOCK_RECORD
  5
29FF
330
1
100
AcDbSymbolTableRecord
100
AcDbBlockTableRecord
  2
*D10
340
0
  0
BLOCK_RECORD
  5
2A0B
330
1
100
AcDbSymbolTableRecord
100
AcDbBlockTableRecord
  2
*D11
340
0
  0
BLOCK_RECORD
  5
2A72
330
1
100
AcDbSymbolTableRecord
100
AcDbBlockTableRecord
  2
*D12
340
0
  0
BLOCK_RECORD
  5
2A7E
330
1
100
AcDbSymbolTableRecord
100
AcDbBlockTableRecord
  2
*D13
340
0
  0
BLOCK_RECORD
  5
2A8A
330
1
100
AcDbSymbolTableRecord
100
AcDbBlockTableRecord
  2
*D14
340
0
  0
BLOCK_RECORD
  5
4671
330
1
100
AcDbSymbolTableRecord
100
AcDbBlockTableRecord
  2
*D15
340
0
  0
BLOCK_RECORD
  5
467D
330
1
100
AcDbSymbolTableRecord
100
AcDbBlockTableRecord
  2
*D16
340
0
  0
BLOCK_RECORD
  5
468B
330
1
100
AcDbSymbolTableRecord
100
AcDbBlockTableRecord
  2
*D17
340
0
  0
BLOCK_RECORD
  5
4770
330
1
100
AcDbSymbolTableRecord
100
AcDbBlockTableRecord
  2
*D18
340
0
  0
BLOCK_RECORD
  5
477D
330
1
100
AcDbSymbolTableRecord
100
AcDbBlockTableRecord
  2
*D19
340
0
  0
BLOCK_RECORD
  5
478A
330
1
100
AcDbSymbolTableRecord
100
AcDbBlockTableRecord
  2
*D20
340
0
  0
ENDTAB
  0
ENDSEC
  0
SECTION
  2
BLOCKS
  0
BLOCK
  5
20
330
1F
100
AcDbEntity
  8
0
100
AcDbBlockBegin
  2
*Model_Space
 70
     0
 10
0.0
 20
0.0
 30
0.0
  3
*Model_Space
  1

  0
ENDBLK
  5
21
330
1F
100
AcDbEntity
  8
0
100
AcDbBlockEnd
  0
BLOCK
  5
1C
330
1B
100
AcDbEntity
 67
     1
  8
0
100
AcDbBlockBegin
  2
*Paper_Space
 70
     0
 10
0.0
 20
0.0
 30
0.0
  3
*Paper_Space
  1

  0
ENDBLK
  5
1D
330
1B
100
AcDbEntity
 67
     1
  8
0
100
AcDbBlockEnd
  0
BLOCK
  5
24
330
23
100
AcDbEntity
  8
0
100
AcDbBlockBegin
  2
*Paper_Space0
 70
     0
 10
0.0
 20
0.0
 30
0.0
  3
*Paper_Space0
  1

  0
ENDBLK
  5
25
330
23
100
AcDbEntity
  8
0
100
AcDbBlockEnd
  0
BLOCK
  5
10C
330
101
100
AcDbEntity
  8
0
100
AcDbBlockBegin
  2
A$C77221E2E
 70
     0
 10
0.0
 20
0.0
 30
0.0
  3
A$C77221E2E
  1

  0
TEXT
  5
102
330
101
100
AcDbEntity
  8
4
  6
CENTER
100
AcDbText
 10
-1.383100251097403
 20
-4.957558222773967
 30
0.0
 40
5.5
  1
0
 50
90.0
100
AcDbText
  0
TEXT
  5
103
330
101
100
AcDbEntity
  8
4
  6
CENTER
100
AcDbText
 10
-1.383100251097403
 20
-10.95755822277397
 30
0.0
 40
5.5
  1
9
 50
90.0
100
AcDbText
  0
TEXT
  5
104
330
101
100
AcDbEntity
  8
4
  6
CENTER
100
AcDbText
 10
-1.383100251097403
 20
-16.95755822277397
 30
0.0
 40
5.5
  1
8
 50
90.0
100
AcDbText
  0
TEXT
  5
105
330
101
100
AcDbEntity
  8
4
  6
CENTER
100
AcDbText
 10
-1.383100251097403
 20
-22.95755822277397
 30
0.0
 40
5.5
  1
7
 50
90.0
100
AcDbText
  0
TEXT
  5
106
330
101
100
AcDbEntity
  8
4
  6
CENTER
100
AcDbText
 10
-1.383100251097403
 20
-28.95755822277397
 30
0.0
 40
5.5
  1
6
 50
90.0
100
AcDbText
  0
TEXT
  5
107
330
101
100
AcDbEntity
  8
4
  6
CENTER
100
AcDbText
 10
-1.383100251097403
 20
-34.95755822277397
 30
0.0
 40
5.5
  1
5
 50
90.0
100
AcDbText
  0
TEXT
  5
108
330
101
100
AcDbEntity
  8
4
  6
CENTER
100
AcDbText
 10
-1.383100251097403
 20
-40.95755822277395
 30
0.0
 40
5.5
  1
4
 50
90.0
100
AcDbText
  0
TEXT
  5
109
330
101
100
AcDbEntity
  8
4
  6
CENTER
100
AcDbText
 10
-1.383100251097403
 20
-46.95755822277397
 30
0.0
 40
5.5
  1
3
 50
90.0
100
AcDbText
  0
TEXT
  5
10A
330
101
100
AcDbEntity
  8
4
  6
CENTER
100
AcDbText
 10
-1.383100251097403
 20
-52.95755822277397
 30
0.0
 40
5.5
  1
2
 50
90.0
100
AcDbText
  0
TEXT
  5
10B
330
101
100
AcDbEntity
  8
4
  6
CENTER
100
AcDbText
 10
-1.383100251097403
 20
-58.95755822277397
 30
0.0
 40
5.5
  1
1
 50
90.0
100
AcDbText
  0
ENDBLK
  5
10D
330
101
100
AcDbEntity
  8
0
100
AcDbBlockEnd
  0
BLOCK
  5
1C6
330
1C2
100
AcDbEntity
  8
0
100
AcDbBlockBegin
  2
_Open30
 70
     0
 10
0.0
 20
0.0
 30
0.0
  3
_Open30
  1

  0
LINE
  5
1C3
330
1C2
100
AcDbEntity
  8
0
  6
ByBlock
 62
     0
370
    -2
100
AcDbLine
 10
-1.0
 20
0.26794919
 30
0.0
 11
0.0
 21
0.0
 31
0.0
  0
LINE
  5
1C4
330
1C2
100
AcDbEntity
  8
0
  6
ByBlock
 62
     0
370
    -2
100
AcDbLine
 10
0.0
 20
0.0
 30
0.0
 11
-1.0
 21
-0.26794919
 31
0.0
  0
LINE
  5
1C5
330
1C2
100
AcDbEntity
  8
0
  6
ByBlock
 62
     0
370
    -2
100
AcDbLine
 10
0.0
 20
0.0
 30
0.0
 11
-1.0
 21
0.0
 31
0.0
  0
ENDBLK
  5
1C7
330
1C2
100
AcDbEntity
  8
0
100
AcDbBlockEnd
  0
BLOCK
  5
5AA
330
504
100
AcDbEntity
  8
0
100
AcDbBlockBegin
  2
A$C56C037E7
 70
     0
 10
0.0
 20
0.0
 30
0.0
  3
A$C56C037E7
  1

  0
LINE
  5
505
330
504
100
AcDbEntity
  8
0
100
AcDbLine
 10
420.0
 20
0.0
 30
0.0
 11
410.0
 21
0.0
 31
0.0
  0
LINE
  5
506
330
504
100
AcDbEntity
  8
0
100
AcDbLine
 10
0.0
 20
297.0
 30
0.0
 11
0.0
 21
287.0
 31
0.0
  0
LINE
  5
507
330
504
100
AcDbEntity
  8
0
100
AcDbLine
 10
420.0
 20
297.0
 30
0.0
 11
420.0
 21
287.0
 31
0.0
  0
LINE
  5
508
330
504
100
AcDbEntity
  8
0
100
AcDbLine
 10
0.0
 20
297.0
 30
0.0
 11
25.0
 21
297.0
 31
0.0
  0
LINE
  5
509
330
504
100
AcDbEntity
  8
3-線
 62
     4
100
AcDbLine
 10
26.0
 20
287.0
 30
0.0
 11
410.0
 21
287.0
 31
0.0
  0
LINE
  5
50A
330
504
100
AcDbEntity
  8
3-線
100
AcDbLine
 10
26.0
 20
287.0
 30
0.0
 11
26.0
 21
10.0
 31
0.0
  0
LINE
  5
50B
330
504
100
AcDbEntity
  8
3-線
100
AcDbLine
 10
26.0
 20
10.0
 30
0.0
 11
410.0
 21
10.0
 31
0.0
  0
LINE
  5
50C
330
504
100
AcDbEntity
  8
3-線
100
AcDbLine
 10
410.0
 20
287.0
 30
0.0
 11
410.0
 21
10.0
 31
0.0
  0
LINE
  5
50D
330
504
100
AcDbEntity
  8
0
100
AcDbLine
 10
410.0
 20
297.0
 30
0.0
 11
420.0
 21
297.0
 31
0.0
  0
LINE
  5
50E
330
504
100
AcDbEntity
  8
0
100
AcDbLine
 10
420.0
 20
10.0
 30
0.0
 11
420.0
 21
0.0
 31
0.0
  0
LINE
  5
50F
330
504
100
AcDbEntity
  8
0
100
AcDbLine
 10
15.0
 20
0.0
 30
0.0
 11
0.0
 21
0.0
 31
0.0
  0
LINE
  5
510
330
504
100
AcDbEntity
  8
0
100
AcDbLine
 10
0.0
 20
10.0
 30
0.0
 11
0.0
 21
0.0
 31
0.0
  0
LINE
  5
511
330
504
100
AcDbEntity
  8
3-線
 62
     4
100
AcDbLine
 10
364.0
 20
254.5
 30
0.0
 11
410.0
 21
254.5
 31
0.0
  0
LINE
  5
512
330
504
100
AcDbEntity
  8
3-線
100
AcDbLine
 10
364.0
 20
287.0
 30
0.0
 11
364.0
 21
254.5
 31
0.0
  0
LINE
  5
513
330
504
100
AcDbEntity
  8
3-線
100
AcDbLine
 10
402.0
 20
254.5
 30
0.0
 11
402.0
 21
194.5
 31
0.0
  0
LINE
  5
514
330
504
100
AcDbEntity
  8
3-線
 62
     4
100
AcDbLine
 10
402.0
 20
194.5
 30
0.0
 11
410.0
 21
194.5
 31
0.0
  0
LINE
  5
515
330
504
100
AcDbEntity
  8
3-線
 62
     4
100
AcDbLine
 10
402.0
 20
200.5
 30
0.0
 11
410.0
 21
200.5
 31
0.0
  0
LINE
  5
516
330
504
100
AcDbEntity
  8
3-線
 62
     4
100
AcDbLine
 10
402.0
 20
206.5
 30
0.0
 11
410.0
 21
206.5
 31
0.0
  0
LINE
  5
517
330
504
100
AcDbEntity
  8
3-線
 62
     4
100
AcDbLine
 10
402.0
 20
212.5
 30
0.0
 11
410.0
 21
212.5
 31
0.0
  0
LINE
  5
518
330
504
100
AcDbEntity
  8
3-線
 62
     4
100
AcDbLine
 10
402.0
 20
218.5
 30
0.0
 11
410.0
 21
218.5
 31
0.0
  0
LINE
  5
519
330
504
100
AcDbEntity
  8
3-線
 62
     4
100
AcDbLine
 10
402.0
 20
224.5
 30
0.0
 11
410.0
 21
224.5
 31
0.0
  0
LINE
  5
51A
330
504
100
AcDbEntity
  8
3-線
 62
     4
100
AcDbLine
 10
402.0
 20
230.5
 30
0.0
 11
410.0
 21
230.5
 31
0.0
  0
LINE
  5
51B
330
504
100
AcDbEntity
  8
3-線
 62
     4
100
AcDbLine
 10
402.0
 20
236.5
 30
0.0
 11
410.0
 21
236.5
 31
0.0
  0
LINE
  5
51C
330
504
100
AcDbEntity
  8
3-線
 62
     4
100
AcDbLine
 10
402.0
 20
242.5
 30
0.0
 11
410.0
 21
242.5
 31
0.0
  0
LINE
  5
51D
330
504
100
AcDbEntity
  8
3-線
 62
     4
100
AcDbLine
 10
402.0
 20
248.5
 30
0.0
 11
410.0
 21
248.5
 31
0.0
  0
LINE
  5
51E
330
504
100
AcDbEntity
  8
2-線
100
AcDbLine
 10
370.0
 20
287.0
 30
0.0
 11
370.0
 21
254.5
 31
0.0
  0
LINE
  5
51F
330
504
100
AcDbEntity
  8
2-線
100
AcDbLine
 10
397.8
 20
287.0
 30
0.0
 11
397.8
 21
254.5
 31
0.0
  0
LINE
  5
520
330
504
100
AcDbEntity
  8
2-線
100
AcDbLine
 10
370.0
 20
280.05
 30
0.0
 11
410.0
 21
280.05
 31
0.0
  0
LINE
  5
521
330
504
100
AcDbEntity
  8
2-線
100
AcDbLine
 10
41.0
 20
287.0
 30
0.0
 11
41.0
 21
269.0
 31
0.0
  0
LINE
  5
522
330
504
100
AcDbEntity
  8
2-線
100
AcDbLine
 10
81.0
 20
287.0
 30
0.0
 11
81.0
 21
269.0
 31
0.0
  0
LINE
  5
523
330
504
100
AcDbEntity
  8
2-線
100
AcDbLine
 10
26.0
 20
269.0
 30
0.0
 11
136.0
 21
269.0
 31
0.0
  0
LINE
  5
524
330
504
100
AcDbEntity
  8
2-線
100
AcDbLine
 10
96.0
 20
287.0
 30
0.0
 11
96.0
 21
269.0
 31
0.0
  0
LINE
  5
525
330
504
100
AcDbEntity
  8
2-線
100
AcDbLine
 10
136.0
 20
287.0
 30
0.0
 11
136.0
 21
269.0
 31
0.0
  0
LINE
  5
526
330
504
100
AcDbEntity
  8
2-線
100
AcDbLine
 10
36.0
 20
22.0
 30
0.0
 11
36.0
 21
10.0
 31
0.0
  0
LINE
  5
527
330
504
100
AcDbEntity
  8
2-線
100
AcDbLine
 10
51.0
 20
22.0
 30
0.0
 11
51.0
 21
10.0
 31
0.0
  0
LINE
  5
528
330
504
100
AcDbEntity
  8
2-線
100
AcDbLine
 10
61.0
 20
22.0
 30
0.0
 11
61.0
 21
10.0
 31
0.0
  0
LINE
  5
529
330
504
100
AcDbEntity
  8
2-線
100
AcDbLine
 10
111.0
 20
22.0
 30
0.0
 11
111.0
 21
10.0
 31
0.0
  0
LINE
  5
52A
330
504
100
AcDbEntity
  8
2-線
100
AcDbLine
 10
26.0
 20
16.0
 30
0.0
 11
111.0
 21
16.0
 31
0.0
  0
LINE
  5
52B
330
504
100
AcDbEntity
  8
2-線
100
AcDbLine
 10
26.0
 20
22.0
 30
0.0
 11
111.0
 21
22.0
 31
0.0
  0
LINE
  5
52C
330
504
100
AcDbEntity
  8
2-線
100
AcDbLine
 10
207.0
 20
22.0
 30
0.0
 11
410.0
 21
22.0
 31
0.0
  0
LINE
  5
52D
330
504
100
AcDbEntity
  8
2-線
100
AcDbLine
 10
207.0
 20
34.0
 30
0.0
 11
410.0
 21
34.0
 31
0.0
  0
LINE
  5
52E
330
504
100
AcDbEntity
  8
2-線
100
AcDbLine
 10
247.0
 20
40.0
 30
0.0
 11
410.0
 21
40.0
 31
0.0
  0
LINE
  5
52F
330
504
100
AcDbEntity
  8
2-線
100
AcDbLine
 10
247.0
 20
46.0
 30
0.0
 11
410.0
 21
46.0
 31
0.0
  0
LINE
  5
530
330
504
100
AcDbEntity
  8
2-線
100
AcDbLine
 10
247.0
 20
76.0
 30
0.0
 11
247.0
 21
34.0
 31
0.0
  0
LINE
  5
531
330
504
100
AcDbEntity
  8
2-線
100
AcDbLine
 10
280.0
 20
34.0
 30
0.0
 11
280.0
 21
22.0
 31
0.0
  0
LINE
  5
532
330
504
100
AcDbEntity
  8
2-線
100
AcDbLine
 10
295.0
 20
34.0
 30
0.0
 11
295.0
 21
10.0
 31
0.0
  0
LINE
  5
533
330
504
100
AcDbEntity
  8
2-線
100
AcDbLine
 10
300.0
 20
34.0
 30
0.0
 11
300.0
 21
10.0
 31
0.0
  0
LINE
  5
534
330
504
100
AcDbEntity
  8
2-線
100
AcDbLine
 10
257.0
 20
76.0
 30
0.0
 11
257.0
 21
34.0
 31
0.0
  0
LINE
  5
535
330
504
100
AcDbEntity
  8
2-線
100
AcDbLine
 10
345.0
 20
34.0
 30
0.0
 11
345.0
 21
10.0
 31
0.0
  0
LINE
  5
536
330
504
100
AcDbEntity
  8
2-線
100
AcDbLine
 10
350.0
 20
34.0
 30
0.0
 11
350.0
 21
10.0
 31
0.0
  0
LINE
  5
537
330
504
100
AcDbEntity
  8
2-線
100
AcDbLine
 10
307.0
 20
76.0
 30
0.0
 11
307.0
 21
34.0
 31
0.0
  0
LINE
  5
538
330
504
100
AcDbEntity
  8
2-線
100
AcDbLine
 10
340.0
 20
76.00000000000003
 30
0.0
 11
340.0
 21
34.0
 31
0.0
  0
LINE
  5
539
330
504
100
AcDbEntity
  8
2-線
100
AcDbLine
 10
355.0
 20
76.0
 30
0.0
 11
355.0
 21
34.0
 31
0.0
  0
LINE
  5
53A
330
504
100
AcDbEntity
  8
2-線
100
AcDbLine
 10
375.0
 20
76.00000000000003
 30
0.0
 11
375.0
 21
34.0
 31
0.0
  0
TEXT
  5
53B
330
504
100
AcDbEntity
  8
2-線
100
AcDbText
 10
367.0
 20
285.59
 30
0.0
 40
2.799999999999998
  1
削り加工部一般公差
 41
1.199999999999999
  7
縦
 72
     4
 11
367.0
 21
270.75
 31
0.0
100
AcDbText
  0
TEXT
  5
53C
330
504
100
AcDbEntity
  8
2-線
100
AcDbText
 10
372.676
 20
284.1125000000001
 30
0.0
 40
2.299999999999998
  1
呼び寸法ノ区分
 41
1.199999999999999
 72
     4
 11
383.9
 21
285.2625000000001
 31
0.0
100
AcDbText
  0
TEXT
  5
53D
330
504
100
AcDbEntity
  8
2-線
100
AcDbText
 10
374.424
 20
280.6375
 30
0.0
 40
2.299999999999998
  1
単位　　ｍｍ
 41
1.199999999999999
 72
     4
 11
383.9
 21
281.7875
 31
0.0
100
AcDbText
  0
TEXT
  5
53E
330
504
100
AcDbEntity
  8
2-線
100
AcDbText
 10
401.2166666666665
 20
284.1125000000001
 30
0.0
 40
2.299999999999998
  1
JIS
 72
     4
 11
403.8999999999998
 21
285.2625000000001
 31
0.0
100
AcDbText
  0
TEXT
  5
53F
330
504
100
AcDbEntity
  8
2-線
100
AcDbText
 10
398.7633333333332
 20
280.6375
 30
0.0
 40
2.299999999999998
  1
（中級）
 72
     4
 11
403.8999999999998
 21
281.7875
 31
0.0
100
AcDbText
  0
TEXT
  5
540
330
504
100
AcDbEntity
  8
2-線
100
AcDbText
 10
370.5
 20
255.175
 30
0.0
 40
2.299999999999998
  1
１０００を超え２０００以下
 41
0.75
 11
370.5
 21
256.325
 31
0.0
100
AcDbText
 73
     2
  0
TEXT
  5
541
330
504
100
AcDbEntity
  8
2-線
100
AcDbText
 10
399.2079999999999
 20
255.175
 30
0.0
 40
2.299999999999998
  1
±１．２
 41
0.9
 72
     1
 11
403.8999999999998
 21
256.325
 31
0.0
100
AcDbText
 73
     2
  0
TEXT
  5
542
330
504
100
AcDbEntity
  8
2-線
100
AcDbText
 10
408.75
 20
250.125
 30
0.0
 40
5.5
  1
0
 50
90.0
 72
     4
 11
406.0
 21
251.5
 31
0.0
100
AcDbText
  0
TEXT
  5
543
330
504
100
AcDbEntity
  8
2-線
100
AcDbText
 10
408.75
 20
243.6666666666666
 30
0.0
 40
5.5
  1
9
 50
90.0
 72
     4
 11
406.0
 21
245.5
 31
0.0
100
AcDbText
  0
TEXT
  5
544
330
504
100
AcDbEntity
  8
2-線
100
AcDbText
 10
408.75
 20
237.6666666666666
 30
0.0
 40
5.5
  1
8
 50
90.0
 72
     4
 11
406.0
 21
239.5
 31
0.0
100
AcDbText
  0
TEXT
  5
545
330
504
100
AcDbEntity
  8
2-線
100
AcDbText
 10
408.75
 20
231.6666666666666
 30
0.0
 40
5.5
  1
7
 50
90.0
 72
     4
 11
406.0
 21
233.5
 31
0.0
100
AcDbText
  0
TEXT
  5
546
330
504
100
AcDbEntity
  8
2-線
100
AcDbText
 10
408.75
 20
225.6666666666667
 30
0.0
 40
5.5
  1
6
 50
90.0
 72
     4
 11
406.0
 21
227.5
 31
0.0
100
AcDbText
  0
TEXT
  5
547
330
504
100
AcDbEntity
  8
2-線
100
AcDbText
 10
408.75
 20
219.6666666666667
 30
0.0
 40
5.5
  1
5
 50
90.0
 72
     4
 11
406.0
 21
221.5
 31
0.0
100
AcDbText
  0
TEXT
  5
548
330
504
100
AcDbEntity
  8
2-線
100
AcDbText
 10
408.75
 20
213.6666666666667
 30
0.0
 40
5.5
  1
4
 50
90.0
 72
     4
 11
406.0
 21
215.5
 31
0.0
100
AcDbText
  0
TEXT
  5
549
330
504
100
AcDbEntity
  8
2-線
100
AcDbText
 10
408.75
 20
207.6666666666667
 30
0.0
 40
5.5
  1
3
 50
90.0
 72
     4
 11
406.0
 21
209.5
 31
0.0
100
AcDbText
  0
TEXT
  5
54A
330
504
100
AcDbEntity
  8
2-線
100
AcDbText
 10
408.75
 20
201.6666666666667
 30
0.0
 40
5.5
  1
2
 50
90.0
 72
     4
 11
406.0
 21
203.5
 31
0.0
100
AcDbText
  0
TEXT
  5
54B
330
504
100
AcDbEntity
  8
2-線
100
AcDbText
 10
408.75
 20
196.5833333333333
 30
0.0
 40
5.5
  1
1
 50
90.0
 72
     4
 11
406.0
 21
197.5
 31
0.0
100
AcDbText
  0
TEXT
  5
54C
330
504
100
AcDbEntity
  8
2-線
100
AcDbText
 10
31.63333333333333
 20
280.5000000000001
 30
0.0
 40
4.0
  1
熱
 72
     4
 11
33.5
 21
282.5000000000001
 31
0.0
100
AcDbText
  0
TEXT
  5
54D
330
504
100
AcDbEntity
  8
2-線
100
AcDbText
 10
28.63333333333333
 20
271.5000000000001
 30
0.0
 40
4.0
  1
処
 72
     4
 11
30.5
 21
273.5000000000001
 31
0.0
100
AcDbText
  0
TEXT
  5
54E
330
504
100
AcDbEntity
  8
2-線
100
AcDbText
 10
34.63333333333333
 20
271.6333333333334
 30
0.0
 40
4.0
  1
理
 72
     4
 11
36.5
 21
273.5000000000001
 31
0.0
100
AcDbText
  0
TEXT
  5
54F
330
504
100
AcDbEntity
  8
2-線
100
AcDbText
 10
83.63333333333335
 20
271.5000000000001
 30
0.0
 40
4.0
  1
処
 72
     4
 11
85.5
 21
273.5000000000001
 31
0.0
100
AcDbText
  0
TEXT
  5
550
330
504
100
AcDbEntity
  8
2-線
100
AcDbText
 10
89.63333333333334
 20
271.6333333333334
 30
0.0
 40
4.0
  1
理
 72
     4
 11
91.5
 21
273.5000000000001
 31
0.0
100
AcDbText
  0
TEXT
  5
551
330
504
100
AcDbEntity
  8
2-線
100
AcDbText
 10
83.63333333333335
 20
280.4999999999999
 30
0.0
 40
4.0
  1
表
 72
     4
 11
85.50000000000002
 21
282.4999999999999
 31
0.0
100
AcDbText
  0
TEXT
  5
552
330
504
100
AcDbEntity
  8
2-線
100
AcDbText
 10
89.63333333333338
 20
280.6333333333332
 30
0.0
 40
4.0
  1
面
 72
     4
 11
91.50000000000003
 21
282.4999999999999
 31
0.0
100
AcDbText
  0
TEXT
  5
553
330
504
100
AcDbEntity
  8
2-線
100
AcDbText
 10
27.8
 20
11.5
 30
0.0
 40
3.0
  1
符号
 72
     4
 11
31.0
 21
13.0
 31
0.0
100
AcDbText
  0
TEXT
  5
554
330
504
100
AcDbEntity
  8
2-線
100
AcDbText
 10
38.7
 20
11.5
 30
0.0
 40
3.0
  1
年月日
 72
     4
 11
43.5
 21
13.0
 31
0.0
100
AcDbText
  0
TEXT
  5
555
330
504
100
AcDbEntity
  8
2-線
100
AcDbText
 10
52.9
 20
11.5
 30
0.0
 40
3.0
  1
担当
 72
     4
 11
56.0
 21
13.0
 31
0.0
100
AcDbText
  0
TEXT
  5
556
330
504
100
AcDbEntity
  8
2-線
100
AcDbText
 10
73.79999999999999
 20
11.5
 30
0.0
 40
3.0
  1
改　正　記　事
 72
     4
 11
86.0
 21
13.0
 31
0.0
100
AcDbText
  0
TEXT
  5
557
330
504
100
AcDbEntity
  8
3-線
100
AcDbText
 10
213.4333333333334
 20
12.5
 30
0.0
 40
7.0
  1
協和工業株式会社
 41
1.149999999999999
 72
     4
 11
251.0
 21
16.0
 31
0.0
100
AcDbText
  0
TEXT
  5
558
330
504
100
AcDbEntity
  8
2-線
100
AcDbText
 10
248.08
 20
29.6
 30
0.0
 40
3.0
  1
Ｍ．Ｙ
 41
0.8
 72
     4
 11
252.0
 21
31.0
 31
0.0
100
AcDbText
  0
TEXT
  5
559
330
504
100
AcDbEntity
  8
2-線
100
AcDbText
 10
246.56
 20
23.6
 30
0.0
 40
3.0
  1
０１，０８，０１
 41
0.4
 72
     4
 11
252.0
 21
25.0
 31
0.0
100
AcDbText
  0
TEXT
  5
55A
330
504
100
AcDbEntity
  8
2-線
100
AcDbText
 10
265.8
 20
26.0
 30
0.0
 40
4.0
  1
1:1
 41
1.199999999999999
 72
     4
 11
269.0
 21
28.0
 31
0.0
100
AcDbText
  0
TEXT
  5
55B
330
504
100
AcDbEntity
  8
2-線
100
AcDbText
 10
282.5
 20
26.5
 30
0.0
 40
3.0
  1
三角法
 72
     4
 11
287.5
 21
28.0
 31
0.0
100
AcDbText
  0
TEXT
  5
55C
330
504
100
AcDbEntity
  8
2-線
100
AcDbText
 10
247.9
 20
35.6
 30
0.0
 40
3.0
  1
Ｎｏ．
 72
     4
 11
252.0
 21
37.0
 31
0.0
100
AcDbText
  0
LINE
  5
55D
330
504
100
AcDbEntity
  8
2-線
100
AcDbLine
 10
275.0
 20
34.0
 30
0.0
 11
275.0
 21
22.0
 31
0.0
  0
LINE
  5
55E
330
504
100
AcDbEntity
  8
2-線
100
AcDbLine
 10
263.0
 20
34.0
 30
0.0
 11
263.0
 21
22.0
 31
0.0
  0
LINE
  5
55F
330
504
100
AcDbEntity
  8
2-線
100
AcDbLine
 10
258.0
 20
34.0
 30
0.0
 11
258.0
 21
22.0
 31
0.0
  0
LINE
  5
560
330
504
100
AcDbEntity
  8
2-線
100
AcDbLine
 10
246.0
 20
34.0
 30
0.0
 11
246.0
 21
22.0
 31
0.0
  0
LINE
  5
561
330
504
100
AcDbEntity
  8
2-線
100
AcDbLine
 10
241.0
 20
34.0
 30
0.0
 11
241.0
 21
22.0
 31
0.0
  0
LINE
  5
562
330
504
100
AcDbEntity
  8
2-線
100
AcDbLine
 10
229.0
 20
34.0
 30
0.0
 11
229.0
 21
22.0
 31
0.0
  0
LINE
  5
563
330
504
100
AcDbEntity
  8
2-線
100
AcDbLine
 10
224.0
 20
34.0
 30
0.0
 11
224.0
 21
22.0
 31
0.0
  0
LINE
  5
564
330
504
100
AcDbEntity
  8
2-線
100
AcDbLine
 10
212.0
 20
34.0
 30
0.0
 11
212.0
 21
22.0
 31
0.0
  0
LINE
  5
565
330
504
100
AcDbEntity
  8
2-線
100
AcDbLine
 10
207.0
 20
34.0
 30
0.0
 11
207.0
 21
10.0
 31
0.0
  0
TEXT
  5
566
330
504
100
AcDbEntity
  8
2-線
100
AcDbText
 10
302.0
 20
26.25
 30
0.0
 40
3.5
  1
  トキコ（株）   殿
 11
302.0
 21
28.0
 31
0.0
100
AcDbText
 73
     2
  0
TEXT
  5
567
330
504
100
AcDbEntity
  8
2-線
100
AcDbText
 10
273.3
 20
35.5
 30
0.0
 40
3.0
  1
図　　　番
 72
     4
 11
282.0
 21
37.0
 31
0.0
100
AcDbText
  0
TEXT
  5
568
330
504
100
AcDbEntity
  8
2-線
100
AcDbText
 10
316.8
 20
35.5
 30
0.0
 40
3.0
  1
品　　名
 72
     4
 11
323.5
 21
37.0
 31
0.0
100
AcDbText
  0
TEXT
  5
569
330
504
100
AcDbEntity
  8
2-線
100
AcDbText
 10
344.3
 20
35.5
 30
0.0
 40
3.0
  1
個数
 72
     4
 11
347.5
 21
37.0
 31
0.0
100
AcDbText
  0
TEXT
  5
56A
330
504
100
AcDbEntity
  8
2-線
100
AcDbText
 10
360.0
 20
35.5
 30
0.0
 40
3.0
  1
材　質
 72
     4
 11
365.0
 21
37.0
 31
0.0
100
AcDbText
  0
TEXT
  5
56B
330
504
100
AcDbEntity
  8
2-線
100
AcDbText
 10
383.9
 20
35.5
 30
0.0
 40
3.0
  1
備　　　考
 72
     4
 11
392.5
 21
37.0
 31
0.0
100
AcDbText
  0
TEXT
  5
56C
330
504
100
AcDbEntity
  8
2-線
100
AcDbText
 10
352.0
 20
29.25
 30
0.0
 40
3.5
  1
 ８型　中間軸付き
 11
352.0
 21
31.0
 31
0.0
100
AcDbText
 73
     2
  0
TEXT
  5
56D
330
504
100
AcDbEntity
  8
2-線
100
AcDbText
 10
352.0
 20
23.25
 30
0.0
 40
3.5
  1
ユニバーサル･ジョイント
 11
352.0
 21
25.0
 31
0.0
100
AcDbText
 73
     2
  0
TEXT
  5
56E
330
504
100
AcDbEntity
  8
2-線
100
AcDbText
 10
352.0
 20
14.0
 30
0.0
 40
4.0
  1
ＳＰ－０８－００Ｃ－００
 41
0.85
 11
352.0
 21
16.0
 31
0.0
100
AcDbText
 73
     2
  0
TEXT
  5
56F
330
504
100
AcDbEntity
  8
2-線
100
AcDbText
 10
340.6
 20
41.5
 30
0.0
 40
3.0
  1
１ｓｅｔ
 72
     4
 11
347.5
 21
43.0
 31
0.0
100
AcDbText
  0
TEXT
  5
570
330
504
100
AcDbEntity
  8
2-線
100
AcDbText
 10
250.7
 20
41.5
 30
0.0
 40
3.0
  1
１
 72
     4
 11
252.0
 21
43.0
 31
0.0
100
AcDbText
  0
TEXT
  5
571
330
504
100
AcDbEntity
  8
2-線
100
AcDbText
 10
259.0
 20
41.5
 30
0.0
 40
3.0
  1
ＳＣ－０８－００Ｃ
 41
0.9
 11
259.0
 21
43.0
 31
0.0
100
AcDbText
 73
     2
  0
TEXT
  5
572
330
504
100
AcDbEntity
  8
2-線
100
AcDbText
 10
309.0
 20
41.5
 30
0.0
 40
3.0
  1
Ｕ．ジョイント
 41
0.9
 11
309.0
 21
43.0
 31
0.0
100
AcDbText
 73
     2
  0
TEXT
  5
573
330
504
100
AcDbEntity
  8
2-線
100
AcDbText
 10
357.0
 20
41.5
 30
0.0
 40
3.0
  1
ＳＣＭ４１５
 41
0.8
 11
357.0
 21
43.0
 31
0.0
100
AcDbText
 73
     2
  0
TEXT
  5
574
330
504
100
AcDbEntity
  8
2-線
100
AcDbText
 10
377.0
 20
41.5
 30
0.0
 40
3.0
  1
浸炭焼き入れ
 11
377.0
 21
43.0
 31
0.0
100
AcDbText
 73
     2
  0
TEXT
  5
575
330
504
100
AcDbEntity
  8
2-線
100
AcDbText
 10
277.5
 20
32.76
 30
0.0
 40
2.799999999999998
  1
投影法
 41
0.9
  7
縦
 72
     4
 11
277.5
 21
28.0
 31
0.0
100
AcDbText
  0
TEXT
  5
576
330
504
100
AcDbEntity
  8
2-線
100
AcDbText
 10
226.5
 20
32.76
 30
0.0
 40
2.799999999999998
  1
検　図
 41
0.9
  7
縦
 72
     4
 11
226.5
 21
28.0
 31
0.0
100
AcDbText
  0
TEXT
  5
577
330
504
100
AcDbEntity
  8
2-線
100
AcDbText
 10
243.5
 20
32.76
 30
0.0
 40
2.799999999999998
  1
製　図
 41
0.9
  7
縦
 72
     4
 11
243.5
 21
28.0
 31
0.0
100
AcDbText
  0
TEXT
  5
578
330
504
100
AcDbEntity
  8
2-線
100
AcDbText
 10
260.5
 20
32.85333333333333
 30
0.0
 40
2.799999999999998
  1
尺　度
 41
0.9
  7
縦
 72
     4
 11
260.5
 21
28.0
 31
0.0
100
AcDbText
  0
TEXT
  5
579
330
504
100
AcDbEntity
  8
2-線
100
AcDbText
 10
297.5
 20
32.76
 30
0.0
 40
2.799999999999998
  1
客　先
 41
0.9
  7
縦
 72
     4
 11
297.5
 21
28.0
 31
0.0
100
AcDbText
  0
TEXT
  5
57A
330
504
100
AcDbEntity
  8
2-線
100
AcDbText
 10
297.5
 20
20.76
 30
0.0
 40
2.799999999999998
  1
整　番
 41
0.9
  7
縦
 72
     4
 11
297.5
 21
16.0
 31
0.0
100
AcDbText
  0
TEXT
  5
57B
330
504
100
AcDbEntity
  8
2-線
100
AcDbText
 10
347.5
 20
32.76
 30
0.0
 40
2.799999999999998
  1
名　称
 41
0.9
  7
縦
 72
     4
 11
347.5
 21
28.0
 31
0.0
100
AcDbText
  0
TEXT
  5
57C
330
504
100
AcDbEntity
  8
2-線
100
AcDbText
 10
347.5
 20
20.85333333333333
 30
0.0
 40
2.799999999999998
  1
図　番
 41
0.9
  7
縦
 72
     4
 11
347.5
 21
16.0
 31
0.0
100
AcDbText
  0
TEXT
  5
57D
330
504
100
AcDbEntity
  8
2-線
100
AcDbText
 10
209.5
 20
32.76
 30
0.0
 40
2.799999999999998
  1
認　可
 41
0.9
  7
縦
 72
     4
 11
209.5
 21
28.0
 31
0.0
100
AcDbText
  0
LINE
  5
57E
330
504
100
AcDbEntity
  8
2-線
100
AcDbLine
 10
370.0
 20
283.525
 30
0.0
 11
410.0
 21
283.525
 31
0.0
  0
TEXT
  5
57F
330
504
100
AcDbEntity
  8
2-線
100
AcDbText
 10
399.2079999999999
 20
258.825
 30
0.0
 40
2.299999999999998
  1
±０．８
 41
0.9
 72
     1
 11
403.8999999999998
 21
259.975
 31
0.0
100
AcDbText
 73
     2
  0
TEXT
  5
580
330
504
100
AcDbEntity
  8
2-線
100
AcDbText
 10
399.2079999999999
 20
262.475
 30
0.0
 40
2.299999999999998
  1
±０．５
 41
0.9
 72
     1
 11
403.8999999999998
 21
263.6249999999999
 31
0.0
100
AcDbText
 73
     2
  0
TEXT
  5
581
330
504
100
AcDbEntity
  8
2-線
100
AcDbText
 10
399.2079999999999
 20
266.1249999999999
 30
0.0
 40
2.299999999999998
  1
±０．３
 41
0.9
 72
     1
 11
403.8999999999998
 21
267.2749999999999
 31
0.0
100
AcDbText
 73
     2
  0
TEXT
  5
582
330
504
100
AcDbEntity
  8
2-線
100
AcDbText
 10
399.2079999999999
 20
269.7749999999999
 30
0.0
 40
2.299999999999998
  1
±０．２
 41
0.9
 72
     1
 11
403.8999999999998
 21
270.9249999999999
 31
0.0
100
AcDbText
 73
     2
  0
TEXT
  5
583
330
504
100
AcDbEntity
  8
2-線
100
AcDbText
 10
399.4839999999999
 20
273.4249999999999
 30
0.0
 40
2.299999999999998
  1
±０．１
 41
0.9
 72
     1
 11
403.8999999999998
 21
274.5749999999999
 31
0.0
100
AcDbText
 73
     2
  0
TEXT
  5
584
330
504
100
AcDbEntity
  8
2-線
100
AcDbText
 10
399.4839999999999
 20
277.0749999999999
 30
0.0
 40
2.299999999999998
  1
±０．１
 41
0.9
 72
     1
 11
403.8999999999998
 21
278.2249999999999
 31
0.0
100
AcDbText
 73
     2
  0
TEXT
  5
585
330
504
100
AcDbEntity
  8
2-線
100
AcDbText
 10
370.5
 20
258.825
 30
0.0
 40
2.299999999999998
  1
　３１５を超え１０００以下
 41
0.75
 11
370.5
 21
259.975
 31
0.0
100
AcDbText
 73
     2
  0
TEXT
  5
586
330
504
100
AcDbEntity
  8
2-線
100
AcDbText
 10
370.5
 20
262.475
 30
0.0
 40
2.299999999999998
  1
　１２０を超え　３１５以下
 41
0.75
 11
370.5
 21
263.6249999999999
 31
0.0
100
AcDbText
 73
     2
  0
TEXT
  5
587
330
504
100
AcDbEntity
  8
2-線
100
AcDbText
 10
370.5
 20
266.1249999999999
 30
0.0
 40
2.299999999999998
  1
　　３０を超え　１２０以下
 41
0.75
 11
370.5
 21
267.2749999999999
 31
0.0
100
AcDbText
 73
     2
  0
TEXT
  5
588
330
504
100
AcDbEntity
  8
2-線
100
AcDbText
 10
370.5
 20
269.7749999999999
 30
0.0
 40
2.299999999999998
  1
　　　６を超え　　３０以下
 41
0.75
 11
370.5
 21
270.9249999999999
 31
0.0
100
AcDbText
 73
     2
  0
TEXT
  5
589
330
504
100
AcDbEntity
  8
2-線
100
AcDbText
 10
370.5
 20
273.4249999999999
 30
0.0
 40
2.299999999999998
  1
　　　３を超え　　　６以下
 41
0.75
 11
370.5
 21
274.5749999999999
 31
0.0
100
AcDbText
 73
     2
  0
TEXT
  5
58A
330
504
100
AcDbEntity
  8
2-線
100
AcDbText
 10
370.5
 20
277.0749999999999
 30
0.0
 40
2.299999999999998
  1
  ０．５を超え　　　３以下
 41
0.75
 11
370.5
 21
278.2249999999999
 31
0.0
100
AcDbText
 73
     2
  0
LINE
  5
58B
330
504
100
AcDbEntity
  8
2-線
100
AcDbLine
 10
247.0
 20
52.0
 30
0.0
 11
410.0
 21
52.0
 31
0.0
  0
TEXT
  5
58C
330
504
100
AcDbEntity
  8
2-線
100
AcDbText
 10
259.0
 20
47.5
 30
0.0
 40
3.0
  1
ＳＣ－０８－００Ｃ
 41
0.9
 11
259.0
 21
49.0
 31
0.0
100
AcDbText
 73
     2
  0
TEXT
  5
58D
330
504
100
AcDbEntity
  8
2-線
100
AcDbText
 10
250.6
 20
47.5
 30
0.0
 40
3.0
  1
２
 72
     4
 11
252.0
 21
49.0
 31
0.0
100
AcDbText
  0
TEXT
  5
58E
330
504
100
AcDbEntity
  8
2-線
100
AcDbText
 10
309.0
 20
47.5
 30
0.0
 40
3.0
  1
Ｕ．ジョイント
 41
0.9
 11
309.0
 21
49.0
 31
0.0
100
AcDbText
 73
     2
  0
TEXT
  5
58F
330
504
100
AcDbEntity
  8
2-線
100
AcDbText
 10
357.0
 20
47.5
 30
0.0
 40
3.0
  1
ＳＣＭ４１５
 41
0.8
 11
357.0
 21
49.0
 31
0.0
100
AcDbText
 73
     2
  0
TEXT
  5
590
330
504
100
AcDbEntity
  8
2-線
100
AcDbText
 10
340.6
 20
47.5
 30
0.0
 40
3.0
  1
１ｓｅｔ
 72
     4
 11
347.5
 21
49.0
 31
0.0
100
AcDbText
  0
TEXT
  5
591
330
504
100
AcDbEntity
  8
2-線
100
AcDbText
 10
377.0
 20
47.5
 30
0.0
 40
3.0
  1
浸炭焼き入れ
 11
377.0
 21
49.0
 31
0.0
100
AcDbText
 73
     2
  0
LINE
  5
592
330
504
100
AcDbEntity
  8
2-線
100
AcDbLine
 10
247.0
 20
58.0
 30
0.0
 11
410.0
 21
58.0
 31
0.0
  0
TEXT
  5
593
330
504
100
AcDbEntity
  8
2-線
100
AcDbText
 10
259.0
 20
53.5
 30
0.0
 40
3.0
  1
ＬＩＶ１０－００－０００
 41
0.9
 11
259.0
 21
55.0
 31
0.0
100
AcDbText
 73
     2
  0
TEXT
  5
594
330
504
100
AcDbEntity
  8
2-線
100
AcDbText
 10
250.6
 20
53.5
 30
0.0
 40
3.0
  1
３
 72
     4
 11
252.0
 21
55.0
 31
0.0
100
AcDbText
  0
TEXT
  5
595
330
504
100
AcDbEntity
  8
2-線
100
AcDbText
 10
309.0
 20
53.5
 30
0.0
 40
3.0
  1
スリーブ
 11
309.0
 21
55.0
 31
0.0
100
AcDbText
 73
     2
  0
TEXT
  5
596
330
504
100
AcDbEntity
  8
2-線
100
AcDbText
 10
357.0
 20
53.5
 30
0.0
 40
3.0
  1
Ｓ４５Ｃ
 41
0.8
 11
357.0
 21
55.0
 31
0.0
100
AcDbText
 73
     2
  0
TEXT
  5
597
330
504
100
AcDbEntity
  8
2-線
100
AcDbText
 10
346.2
 20
53.5
 30
0.0
 40
3.0
  1
１
 72
     4
 11
347.5
 21
55.0
 31
0.0
100
AcDbText
  0
LINE
  5
598
330
504
100
AcDbEntity
  8
2-線
100
AcDbLine
 10
247.0
 20
64.0
 30
0.0
 11
410.0
 21
64.0
 31
0.0
  0
TEXT
  5
599
330
504
100
AcDbEntity
  8
2-線
100
AcDbText
 10
259.0
 20
59.5
 30
0.0
 40
3.0
  1
ＬＩＳ１０－ＳＳ－００１
 41
0.9
 11
259.0
 21
61.0
 31
0.0
100
AcDbText
 73
     2
  0
TEXT
  5
59A
330
504
100
AcDbEntity
  8
2-線
100
AcDbText
 10
250.6
 20
59.5
 30
0.0
 40
3.0
  1
４
 72
     4
 11
252.0
 21
61.0
 31
0.0
100
AcDbText
  0
TEXT
  5
59B
330
504
100
AcDbEntity
  8
2-線
100
AcDbText
 10
309.0
 20
59.5
 30
0.0
 40
3.0
  1
スプライン軸
 41
0.9
 11
309.0
 21
61.0
 31
0.0
100
AcDbText
 73
     2
  0
TEXT
  5
59C
330
504
100
AcDbEntity
  8
2-線
100
AcDbText
 10
357.0
 20
59.5
 30
0.0
 40
3.0
  1
ＳＫ４
 41
0.8
 11
357.0
 21
61.0
 31
0.0
100
AcDbText
 73
     2
  0
TEXT
  5
59D
330
504
100
AcDbEntity
  8
2-線
100
AcDbText
 10
346.2
 20
59.5
 30
0.0
 40
3.0
  1
１
 72
     4
 11
347.5
 21
61.0
 31
0.0
100
AcDbText
  0
LINE
  5
59E
330
504
100
AcDbEntity
  8
2-線
100
AcDbLine
 10
247.0
 20
70.0
 30
0.0
 11
410.0
 21
70.0
 31
0.0
  0
TEXT
  5
59F
330
504
100
AcDbEntity
  8
2-線
100
AcDbText
 10
259.0
 20
65.5
 30
0.0
 40
3.0
  1
ＬＬＰ０８－００－０００
 41
0.9
 11
259.0
 21
67.0
 31
0.0
100
AcDbText
 73
     2
  0
TEXT
  5
5A0
330
504
100
AcDbEntity
  8
2-線
100
AcDbText
 10
250.5
 20
65.5
 30
0.0
 40
3.0
  1
５
 72
     4
 11
252.0
 21
67.0
 31
0.0
100
AcDbText
  0
TEXT
  5
5A1
330
504
100
AcDbEntity
  8
2-線
100
AcDbText
 10
309.0
 20
65.5
 30
0.0
 40
3.0
  1
連結軸
 41
0.9
 11
309.0
 21
67.0
 31
0.0
100
AcDbText
 73
     2
  0
TEXT
  5
5A2
330
504
100
AcDbEntity
  8
2-線
100
AcDbText
 10
357.0
 20
65.5
 30
0.0
 40
3.0
  1
ＳＫ４
 41
0.8
 11
357.0
 21
67.0
 31
0.0
100
AcDbText
 73
     2
  0
TEXT
  5
5A3
330
504
100
AcDbEntity
  8
2-線
100
AcDbText
 10
346.2
 20
65.5
 30
0.0
 40
3.0
  1
１
 72
     4
 11
347.5
 21
67.0
 31
0.0
100
AcDbText
  0
LINE
  5
5A4
330
504
100
AcDbEntity
  8
2-線
100
AcDbLine
 10
247.0
 20
76.0
 30
0.0
 11
410.0
 21
76.0
 31
0.0
  0
TEXT
  5
5A5
330
504
100
AcDbEntity
  8
2-線
100
AcDbText
 10
259.0
 20
71.5
 30
0.0
 40
3.0
  1
ＥＳＰ０５－１８
 41
0.9
 11
259.0
 21
73.0
 31
0.0
100
AcDbText
 73
     2
  0
TEXT
  5
5A6
330
504
100
AcDbEntity
  8
2-線
100
AcDbText
 10
250.6
 20
71.5
 30
0.0
 40
3.0
  1
６
 72
     4
 11
252.0
 21
73.0
 31
0.0
100
AcDbText
  0
TEXT
  5
5A7
330
504
100
AcDbEntity
  8
2-線
100
AcDbText
 10
309.0
 20
71.5
 30
0.0
 40
3.0
  1
平行ピン
 41
0.9
 11
309.0
 21
73.0
 31
0.0
100
AcDbText
 73
     2
  0
TEXT
  5
5A8
330
504
100
AcDbEntity
  8
2-線
100
AcDbText
 10
357.0
 20
71.5
 30
0.0
 40
3.0
  1
市販品
 41
0.8
 11
357.0
 21
73.0
 31
0.0
100
AcDbText
 73
     2
  0
TEXT
  5
5A9
330
504
100
AcDbEntity
  8
2-線
100
AcDbText
 10
346.2
 20
71.5
 30
0.0
 40
3.0
  1
１
 72
     4
 11
347.5
 21
73.0
 31
0.0
100
AcDbText
  0
ENDBLK
  5
5AB
330
504
100
AcDbEntity
  8
0
100
AcDbBlockEnd
  0
BLOCK
  5
1BFF
330
1BF1
100
AcDbEntity
  8
0
100
AcDbBlockBegin
  2
A$C313832AB
 70
     0
 10
0.0
 20
0.0
 30
0.0
  3
A$C313832AB
  1

  0
LINE
  5
1BF2
330
1BF1
100
AcDbEntity
  8
1-線
100
AcDbLine
 10
0.0
 20
0.0
 30
0.0
 11
20.0
 21
0.0
 31
0.0
  0
LINE
  5
1BF3
330
1BF1
100
AcDbEntity
  8
1-線
100
AcDbLine
 10
0.0
 20
5.0
 30
0.0
 11
20.0
 21
5.0
 31
0.0
  0
LINE
  5
1BF4
330
1BF1
100
AcDbEntity
  8
1-線
100
AcDbLine
 10
0.0
 20
10.0
 30
0.0
 11
20.0
 21
10.0
 31
0.0
  0
LINE
  5
1BF5
330
1BF1
100
AcDbEntity
  8
1-線
100
AcDbLine
 10
0.0
 20
30.0
 30
0.0
 11
20.0
 21
30.0
 31
0.0
  0
LINE
  5
1BF6
330
1BF1
100
AcDbEntity
  8
1-線
100
AcDbLine
 10
5.0
 20
15.0
 30
0.0
 11
15.0
 21
15.0
 31
0.0
  0
LINE
  5
1BF7
330
1BF1
100
AcDbEntity
  8
1-線
100
AcDbLine
 10
5.0
 20
25.0
 30
0.0
 11
15.0
 21
25.0
 31
0.0
  0
LINE
  5
1BF8
330
1BF1
100
AcDbEntity
  8
1-線
100
AcDbLine
 10
0.0
 20
30.0
 30
0.0
 11
0.0
 21
0.0
 31
0.0
  0
LINE
  5
1BF9
330
1BF1
100
AcDbEntity
  8
1-線
100
AcDbLine
 10
10.0
 20
25.0
 30
0.0
 11
10.0
 21
15.0
 31
0.0
  0
LINE
  5
1BFA
330
1BF1
100
AcDbEntity
  8
1-線
100
AcDbLine
 10
5.0
 20
30.0
 30
0.0
 11
5.0
 21
10.0
 31
0.0
  0
LINE
  5
1BFB
330
1BF1
100
AcDbEntity
  8
1-線
100
AcDbLine
 10
0.0
 20
20.0
 30
0.0
 11
5.0
 21
20.0
 31
0.0
  0
LINE
  5
1BFC
330
1BF1
100
AcDbEntity
  8
1-線
100
AcDbLine
 10
20.0
 20
30.0
 30
0.0
 11
20.0
 21
0.0
 31
0.0
  0
LINE
  5
1BFD
330
1BF1
100
AcDbEntity
  8
1-線
100
AcDbLine
 10
15.0
 20
30.0
 30
0.0
 11
15.0
 21
10.0
 31
0.0
  0
LINE
  5
1BFE
330
1BF1
100
AcDbEntity
  8
1-線
100
AcDbLine
 10
15.0
 20
20.0
 30
0.0
 11
20.0
 21
20.0
 31
0.0
  0
ENDBLK
  5
1C00
330
1BF1
100
AcDbEntity
  8
0
100
AcDbBlockEnd
  0
BLOCK
  5
1F6C
330
1F5E
100
AcDbEntity
  8
0
100
AcDbBlockBegin
  2
A$C1D0B0400
 70
     0
 10
0.0
 20
0.0
 30
0.0
  3
A$C1D0B0400
  1

  0
LINE
  5
1F5F
330
1F5E
100
AcDbEntity
  8
1-1点
100
AcDbLine
 10
0.0
 20
-15.0
 30
0.0
 11
0.0
 21
15.0
 31
0.0
  0
CIRCLE
  5
1F60
330
1F5E
100
AcDbEntity
  8
3-線
100
AcDbCircle
 10
0.0
 20
0.0
 30
0.0
 40
11.5
  0
CIRCLE
  5
1F61
330
1F5E
100
AcDbEntity
  8
3-線
100
AcDbCircle
 10
0.0
 20
0.0
 30
0.0
 40
6.0
  0
CIRCLE
  5
1F62
330
1F5E
100
AcDbEntity
  8
3-線
100
AcDbCircle
 10
0.0
 20
0.0
 30
0.0
 40
7.0
  0
LINE
  5
1F63
330
1F5E
100
AcDbEntity
  8
3-線
100
AcDbLine
 10
-4.499999999999943
 20
2.0
 30
0.0
 11
-5.656854249492369
 21
2.0
 31
0.0
  0
LINE
  5
1F64
330
1F5E
100
AcDbEntity
  8
3-線
100
AcDbLine
 10
-4.499999999999943
 20
-2.0
 30
0.0
 11
-5.656854249492369
 21
-2.0
 31
0.0
  0
LINE
  5
1F65
330
1F5E
100
AcDbEntity
  8
1-1点
100
AcDbLine
 10
-15.0
 20
0.0
 30
0.0
 11
15.0
 21
0.0
 31
0.0
  0
LINE
  5
1F66
330
1F5E
100
AcDbEntity
  8
3-線
100
AcDbLine
 10
5.454356057317851
 20
-2.5
 30
0.0
 11
-4.000000000000055
 21
-2.499999999999943
 31
0.0
  0
LINE
  5
1F67
330
1F5E
100
AcDbEntity
  8
3-線
100
AcDbLine
 10
5.454356057317851
 20
2.5
 30
0.0
 11
-3.999999999999828
 21
2.500000000000055
 31
0.0
  0
LINE
  5
1F68
330
1F5E
100
AcDbEntity
  8
3-線
100
AcDbLine
 10
-3.999999999999943
 20
2.499999999999943
 30
0.0
 11
-3.999999999999943
 21
-2.500000000000055
 31
0.0
  0
LINE
  5
1F69
330
1F5E
100
AcDbEntity
  8
3-線
100
AcDbLine
 10
-4.499999999999943
 20
2.000000000000055
 30
0.0
 11
-4.499999999999943
 21
-1.999999999999943
 31
0.0
  0
LINE
  5
1F6A
330
1F5E
100
AcDbEntity
  8
3-線
100
AcDbLine
 10
-3.999999999999943
 20
2.499999999999943
 30
0.0
 11
-4.499999999999943
 21
2.0
 31
0.0
  0
LINE
  5
1F6B
330
1F5E
100
AcDbEntity
  8
3-線
100
AcDbLine
 10
-4.499999999999943
 20
-2.0
 30
0.0
 11
-3.999999999999943
 21
-2.500000000000055
 31
0.0
  0
ENDBLK
  5
1F6D
330
1F5E
100
AcDbEntity
  8
0
100
AcDbBlockEnd
  0
BLOCK
  5
28F8
330
28EE
100
AcDbEntity
  8
0
100
AcDbBlockBegin
  2
*D6
 70
     1
 10
0.0
 20
0.0
 30
0.0
  3
*D6
  1

  0
LINE
  5
45B6
330
28EE
100
AcDbEntity
  8
1-線
 62
     0
370
    -2
100
AcDbLine
 10
178.0000000000001
 20
212.7499999999999
 30
0.0
 11
151.0
 21
212.7499999999999
 31
0.0
  0
LINE
  5
45B7
330
28EE
100
AcDbEntity
  8
1-線
 62
     0
370
    -2
100
AcDbLine
 10
177.9999999999999
 20
179.2499999999999
 30
0.0
 11
151.0
 21
179.2499999999999
 31
0.0
  0
LINE
  5
45B8
330
28EE
100
AcDbEntity
  8
1-線
 62
     0
370
    -2
100
AcDbLine
 10
152.0
 20
210.25
 30
0.0
 11
152.0
 21
181.7499999999999
 31
0.0
  0
INSERT
  5
45B9
330
28EE
100
AcDbEntity
  8
1-線
 62
     0
370
    -2
100
AcDbBlockReference
  2
_Open30
 10
152.0
 20
212.7499999999999
 30
0.0
 41
2.5
 42
2.5
 43
2.5
 50
90.0
  0
INSERT
  5
45BA
330
28EE
100
AcDbEntity
  8
1-線
 62
     0
370
    -2
100
AcDbBlockReference
  2
_Open30
 10
152.0
 20
179.2499999999999
 30
0.0
 41
2.5
 42
2.5
 43
2.5
 50
270.0
  0
MTEXT
  5
45BB
330
28EE
100
AcDbEntity
  8
1-線
 62
     0
100
AcDbMText
 10
149.4999999999999
 20
196.0
 30
0.0
 40
3.0
 41
0.0
 71
     5
 72
     1
  1
%%c67
 11
0.0000000000000001
 21
1.0
 31
0.0
 73
     1
 44
1.0
  0
POINT
  5
45BC
330
28EE
100
AcDbEntity
  8
Defpoints
 62
     0
100
AcDbPoint
 10
178.0000000000001
 20
212.7499999999999
 30
0.0
  0
POINT
  5
45BD
330
28EE
100
AcDbEntity
  8
Defpoints
 62
     0
100
AcDbPoint
 10
177.9999999999999
 20
179.2499999999999
 30
0.0
  0
POINT
  5
45BE
330
28EE
100
AcDbEntity
  8
Defpoints
 62
     0
100
AcDbPoint
 10
152.0
 20
179.2499999999999
 30
0.0
  0
ENDBLK
  5
28F9
330
28EE
100
AcDbEntity
  8
0
100
AcDbBlockEnd
  0
BLOCK
  5
2977
330
296D
100
AcDbEntity
  8
0
100
AcDbBlockBegin
  2
*D7
 70
     1
 10
0.0
 20
0.0
 30
0.0
  3
*D7
  1

  0
LINE
  5
45C8
330
296D
100
AcDbEntity
  8
1-線
 62
     0
370
    -2
100
AcDbLine
 10
254.0000000000001
 20
212.7499999999999
 30
0.0
 11
285.0688471154598
 21
212.7499999999999
 31
0.0
  0
LINE
  5
45C9
330
296D
100
AcDbEntity
  8
1-線
 62
     0
370
    -2
100
AcDbLine
 10
254.0000000000003
 20
179.2499999999999
 30
0.0
 11
285.0688471154598
 21
179.2499999999999
 31
0.0
  0
LINE
  5
45CA
330
296D
100
AcDbEntity
  8
1-線
 62
     0
370
    -2
100
AcDbLine
 10
284.0688471154598
 20
210.25
 30
0.0
 11
284.0688471154598
 21
181.7499999999999
 31
0.0
  0
INSERT
  5
45CB
330
296D
100
AcDbEntity
  8
1-線
 62
     0
370
    -2
100
AcDbBlockReference
  2
_Open30
 10
284.0688471154598
 20
212.7499999999999
 30
0.0
 41
2.5
 42
2.5
 43
2.5
 50
90.0
  0
INSERT
  5
45CC
330
296D
100
AcDbEntity
  8
1-線
 62
     0
370
    -2
100
AcDbBlockReference
  2
_Open30
 10
284.0688471154598
 20
179.2499999999999
 30
0.0
 41
2.5
 42
2.5
 43
2.5
 50
270.0
  0
MTEXT
  5
45CD
330
296D
100
AcDbEntity
  8
1-線
 62
     0
100
AcDbMText
 10
281.5688471154599
 20
195.9999999999999
 30
0.0
 40
3.0
 41
0.0
 71
     5
 72
     1
  1
%%c67
 11
0.0000000000000001
 21
1.0
 31
0.0
 73
     1
 44
1.0
  0
POINT
  5
45CE
330
296D
100
AcDbEntity
  8
Defpoints
 62
     0
100
AcDbPoint
 10
254.0000000000001
 20
212.7499999999999
 30
0.0
  0
POINT
  5
45CF
330
296D
100
AcDbEntity
  8
Defpoints
 62
     0
100
AcDbPoint
 10
254.0000000000003
 20
179.2499999999999
 30
0.0
  0
POINT
  5
45D0
330
296D
100
AcDbEntity
  8
Defpoints
 62
     0
100
AcDbPoint
 10
284.0688471154598
 20
179.2499999999999
 30
0.0
  0
ENDBLK
  5
2978
330
296D
100
AcDbEntity
  8
0
100
AcDbBlockEnd
  0
BLOCK
  5
29F1
330
29E7
100
AcDbEntity
  8
0
100
AcDbBlockBegin
  2
*D8
 70
     1
 10
0.0
 20
0.0
 30
0.0
  3
*D8
  1

  0
LINE
  5
4592
330
29E7
100
AcDbEntity
  8
1-線
 62
     0
370
    -2
100
AcDbLine
 10
176.7499999999998
 20
131.0
 30
0.0
 11
176.7499999999998
 21
123.0
 31
0.0
  0
LINE
  5
4593
330
29E7
100
AcDbEntity
  8
1-線
 62
     0
370
    -2
100
AcDbLine
 10
255.2500000000002
 20
131.1238644429595
 30
0.0
 11
255.2500000000002
 21
123.0
 31
0.0
  0
LINE
  5
4594
330
29E7
100
AcDbEntity
  8
1-線
 62
     0
370
    -2
100
AcDbLine
 10
179.2499999999998
 20
124.0
 30
0.0
 11
252.7500000000002
 21
124.0
 31
0.0
  0
INSERT
  5
4595
330
29E7
100
AcDbEntity
  8
1-線
 62
     0
370
    -2
100
AcDbBlockReference
  2
_Open30
 10
176.7499999999998
 20
124.0
 30
0.0
 41
2.5
 42
2.5
 43
2.5
 50
180.0
  0
INSERT
  5
4596
330
29E7
100
AcDbEntity
  8
1-線
 62
     0
370
    -2
100
AcDbBlockReference
  2
_Open30
 10
255.2500000000002
 20
124.0
 30
0.0
 41
2.5
 42
2.5
 43
2.5
  0
MTEXT
  5
4597
330
29E7
100
AcDbEntity
  8
1-線
 62
     0
100
AcDbMText
 10
216.0000000000001
 20
126.5
 30
0.0
 40
3.0
 41
0.0
 71
     5
 72
     1
  1
157
 73
     1
 44
1.0
  0
POINT
  5
4598
330
29E7
100
AcDbEntity
  8
Defpoints
 62
     0
100
AcDbPoint
 10
176.7499999999998
 20
131.0
 30
0.0
  0
POINT
  5
4599
330
29E7
100
AcDbEntity
  8
Defpoints
 62
     0
100
AcDbPoint
 10
255.2500000000002
 20
131.1238644429595
 30
0.0
  0
POINT
  5
459A
330
29E7
100
AcDbEntity
  8
Defpoints
 62
     0
100
AcDbPoint
 10
255.2500000000002
 20
124.0
 30
0.0
  0
ENDBLK
  5
29F2
330
29E7
100
AcDbEntity
  8
0
100
AcDbBlockEnd
  0
BLOCK
  5
29FD
330
29F3
100
AcDbEntity
  8
0
100
AcDbBlockBegin
  2
*D9
 70
     1
 10
0.0
 20
0.0
 30
0.0
  3
*D9
  1

  0
LINE
  5
4589
330
29F3
100
AcDbEntity
  8
1-線
 62
     0
370
    -2
100
AcDbLine
 10
216.0000000000007
 20
160.0272419517466
 30
0.0
 11
216.0000000000007
 21
131.1238644429595
 31
0.0
  0
LINE
  5
458A
330
29F3
100
AcDbEntity
  8
1-線
 62
     0
370
    -2
100
AcDbLine
 10
255.2500000000002
 20
139.0205142116764
 30
0.0
 11
255.2500000000002
 21
131.1238644429595
 31
0.0
  0
LINE
  5
458B
330
29F3
100
AcDbEntity
  8
1-線
 62
     0
370
    -2
100
AcDbLine
 10
218.5000000000008
 20
132.1238644429595
 30
0.0
 11
252.7500000000002
 21
132.1238644429595
 31
0.0
  0
INSERT
  5
458C
330
29F3
100
AcDbEntity
  8
1-線
 62
     0
370
    -2
100
AcDbBlockReference
  2
_Open30
 10
216.0000000000007
 20
132.1238644429595
 30
0.0
 41
2.5
 42
2.5
 43
2.5
 50
180.0
  0
INSERT
  5
458D
330
29F3
100
AcDbEntity
  8
1-線
 62
     0
370
    -2
100
AcDbBlockReference
  2
_Open30
 10
255.2500000000002
 20
132.1238644429595
 30
0.0
 41
2.5
 42
2.5
 43
2.5
  0
MTEXT
  5
458E
330
29F3
100
AcDbEntity
  8
1-線
 62
     0
100
AcDbMText
 10
235.6250000000005
 20
134.6238644429595
 30
0.0
 40
3.0
 41
0.0
 71
     5
 72
     1
  1
78.5
 73
     1
 44
1.0
  0
POINT
  5
458F
330
29F3
100
AcDbEntity
  8
Defpoints
 62
     0
100
AcDbPoint
 10
216.0000000000007
 20
160.0272419517466
 30
0.0
  0
POINT
  5
4590
330
29F3
100
AcDbEntity
  8
Defpoints
 62
     0
100
AcDbPoint
 10
255.2500000000002
 20
139.0205142116764
 30
0.0
  0
POINT
  5
4591
330
29F3
100
AcDbEntity
  8
Defpoints
 62
     0
100
AcDbPoint
 10
255.2500000000002
 20
132.1238644429595
 30
0.0
  0
ENDBLK
  5
29FE
330
29F3
100
AcDbEntity
  8
0
100
AcDbBlockEnd
  0
BLOCK
  5
2A09
330
29FF
100
AcDbEntity
  8
0
100
AcDbBlockBegin
  2
*D10
 70
     1
 10
0.0
 20
0.0
 30
0.0
  3
*D10
  1

  0
LINE
  5
4580
330
29FF
100
AcDbEntity
  8
1-線
 62
     0
370
    -2
100
AcDbLine
 10
255.2500000000002
 20
147.0227557258919
 30
0.0
 11
255.2500000000002
 21
139.0205142116764
 31
0.0
  0
LINE
  5
4581
330
29FF
100
AcDbEntity
  8
1-線
 62
     0
370
    -2
100
AcDbLine
 10
232.7500000000001
 20
187.2500000000001
 30
0.0
 11
232.7500000000001
 21
139.0205142116764
 31
0.0
  0
LINE
  5
4582
330
29FF
100
AcDbEntity
  8
1-線
 62
     0
370
    -2
100
AcDbLine
 10
252.7500000000002
 20
140.0205142116764
 30
0.0
 11
235.2500000000001
 21
140.0205142116764
 31
0.0
  0
INSERT
  5
4583
330
29FF
100
AcDbEntity
  8
1-線
 62
     0
370
    -2
100
AcDbBlockReference
  2
_Open30
 10
255.2500000000002
 20
140.0205142116764
 30
0.0
 41
2.5
 42
2.5
 43
2.5
  0
INSERT
  5
4584
330
29FF
100
AcDbEntity
  8
1-線
 62
     0
370
    -2
100
AcDbBlockReference
  2
_Open30
 10
232.7500000000001
 20
140.0205142116764
 30
0.0
 41
2.5
 42
2.5
 43
2.5
 50
180.0
  0
MTEXT
  5
4585
330
29FF
100
AcDbEntity
  8
1-線
 62
     0
100
AcDbMText
 10
244.0000000000002
 20
142.5205142116764
 30
0.0
 40
3.0
 41
0.0
 71
     5
 72
     1
  1
45
 73
     1
 44
1.0
  0
POINT
  5
4586
330
29FF
100
AcDbEntity
  8
Defpoints
 62
     0
100
AcDbPoint
 10
255.2500000000002
 20
147.0227557258919
 30
0.0
  0
POINT
  5
4587
330
29FF
100
AcDbEntity
  8
Defpoints
 62
     0
100
AcDbPoint
 10
232.7500000000001
 20
187.2500000000001
 30
0.0
  0
POINT
  5
4588
330
29FF
100
AcDbEntity
  8
Defpoints
 62
     0
100
AcDbPoint
 10
232.7500000000001
 20
140.0205142116764
 30
0.0
  0
ENDBLK
  5
2A0A
330
29FF
100
AcDbEntity
  8
0
100
AcDbBlockEnd
  0
BLOCK
  5
2A15
330
2A0B
100
AcDbEntity
  8
0
100
AcDbBlockBegin
  2
*D11
 70
     1
 10
0.0
 20
0.0
 30
0.0
  3
*D11
  1

  0
LINE
  5
4577
330
2A0B
100
AcDbEntity
  8
1-線
 62
     0
370
    -2
100
AcDbLine
 10
244.0000000000003
 20
172.7202576544054
 30
0.0
 11
244.0000000000003
 21
147.0227557258919
 31
0.0
  0
LINE
  5
4578
330
2A0B
100
AcDbEntity
  8
1-線
 62
     0
370
    -2
100
AcDbLine
 10
255.2500000000002
 20
180.4999999999999
 30
0.0
 11
255.2500000000002
 21
147.0227557258919
 31
0.0
  0
LINE
  5
4579
330
2A0B
100
AcDbEntity
  8
1-線
 62
     0
370
    -2
100
AcDbLine
 10
246.5000000000003
 20
148.0227557258919
 30
0.0
 11
252.7500000000002
 21
148.0227557258919
 31
0.0
  0
INSERT
  5
457A
330
2A0B
100
AcDbEntity
  8
1-線
 62
     0
370
    -2
100
AcDbBlockReference
  2
_Open30
 10
244.0000000000003
 20
148.0227557258919
 30
0.0
 41
2.5
 42
2.5
 43
2.5
 50
180.0
  0
INSERT
  5
457B
330
2A0B
100
AcDbEntity
  8
1-線
 62
     0
370
    -2
100
AcDbBlockReference
  2
_Open30
 10
255.2500000000002
 20
148.0227557258919
 30
0.0
 41
2.5
 42
2.5
 43
2.5
  0
MTEXT
  5
457C
330
2A0B
100
AcDbEntity
  8
1-線
 62
     0
100
AcDbMText
 10
249.6250000000003
 20
150.5227557258919
 30
0.0
 40
3.0
 41
0.0
 71
     5
 72
     1
  1
22.5
 73
     1
 44
1.0
  0
POINT
  5
457D
330
2A0B
100
AcDbEntity
  8
Defpoints
 62
     0
100
AcDbPoint
 10
244.0000000000003
 20
172.7202576544054
 30
0.0
  0
POINT
  5
457E
330
2A0B
100
AcDbEntity
  8
Defpoints
 62
     0
100
AcDbPoint
 10
255.2500000000002
 20
180.4999999999999
 30
0.0
  0
POINT
  5
457F
330
2A0B
100
AcDbEntity
  8
Defpoints
 62
     0
100
AcDbPoint
 10
255.2500000000002
 20
148.0227557258919
 30
0.0
  0
ENDBLK
  5
2A16
330
2A0B
100
AcDbEntity
  8
0
100
AcDbBlockEnd
  0
BLOCK
  5
2A7C
330
2A72
100
AcDbEntity
  8
0
100
AcDbBlockBegin
  2
*D12
 70
     1
 10
0.0
 20
0.0
 30
0.0
  3
*D12
  1

  0
LINE
  5
475D
330
2A72
100
AcDbEntity
  8
1-線
 62
     0
370
    -2
100
AcDbLine
 10
187.9999999999993
 20
154.7191683005759
 30
0.0
 11
187.9999999999991
 21
147.0743321117988
 31
0.0
  0
LINE
  5
475E
330
2A72
100
AcDbEntity
  8
1-線
 62
     0
370
    -2
100
AcDbLine
 10
176.75
 20
152.6556841886208
 30
0.0
 11
176.7499999999998
 21
147.0743321117991
 31
0.0
  0
LINE
  5
475F
330
2A72
100
AcDbEntity
  8
1-線
 62
     0
370
    -2
100
AcDbLine
 10
185.4999999999991
 20
148.0743321117989
 30
0.0
 11
179.2499999999999
 21
148.0743321117991
 31
0.0
  0
INSERT
  5
4760
330
2A72
100
AcDbEntity
  8
1-線
 62
     0
370
    -2
100
AcDbBlockReference
  2
_Open30
 10
187.9999999999991
 20
148.0743321117988
 30
0.0
 41
2.5
 42
2.5
 43
2.5
 50
359.9999999999984
  0
INSERT
  5
4761
330
2A72
100
AcDbEntity
  8
1-線
 62
     0
370
    -2
100
AcDbBlockReference
  2
_Open30
 10
176.7499999999999
 20
148.0743321117991
 30
0.0
 41
2.5
 42
2.5
 43
2.5
 50
179.9999999999984
  0
MTEXT
  5
4762
330
2A72
100
AcDbEntity
  8
1-線
 62
     0
100
AcDbMText
 10
182.3749999999995
 20
150.5743321117989
 30
0.0
 40
3.0
 41
0.0
 71
     5
 72
     1
  1
22.5
 73
     1
 44
1.0
  0
POINT
  5
4763
330
2A72
100
AcDbEntity
  8
Defpoints
 62
     0
100
AcDbPoint
 10
187.9999999999993
 20
154.7191683005759
 30
0.0
  0
POINT
  5
4764
330
2A72
100
AcDbEntity
  8
Defpoints
 62
     0
100
AcDbPoint
 10
176.75
 20
152.6556841886208
 30
0.0
  0
POINT
  5
4765
330
2A72
100
AcDbEntity
  8
Defpoints
 62
     0
100
AcDbPoint
 10
176.7499999999999
 20
148.0743321117991
 30
0.0
  0
ENDBLK
  5
2A7D
330
2A72
100
AcDbEntity
  8
0
100
AcDbBlockEnd
  0
BLOCK
  5
2A88
330
2A7E
100
AcDbEntity
  8
0
100
AcDbBlockBegin
  2
*D13
 70
     1
 10
0.0
 20
0.0
 30
0.0
  3
*D13
  1

  0
LINE
  5
45A4
330
2A7E
100
AcDbEntity
  8
1-線
 62
     0
370
    -2
100
AcDbLine
 10
199.25
 20
179.25
 30
0.0
 11
199.25
 21
139.0
 31
0.0
  0
LINE
  5
45A5
330
2A7E
100
AcDbEntity
  8
1-線
 62
     0
370
    -2
100
AcDbLine
 10
176.7499999999998
 20
147.0743321117991
 30
0.0
 11
176.7499999999998
 21
139.0
 31
0.0
  0
LINE
  5
45A6
330
2A7E
100
AcDbEntity
  8
1-線
 62
     0
370
    -2
100
AcDbLine
 10
196.75
 20
140.0
 30
0.0
 11
179.2499999999998
 21
140.0
 31
0.0
  0
INSERT
  5
45A7
330
2A7E
100
AcDbEntity
  8
1-線
 62
     0
370
    -2
100
AcDbBlockReference
  2
_Open30
 10
199.25
 20
140.0
 30
0.0
 41
2.5
 42
2.5
 43
2.5
  0
INSERT
  5
45A8
330
2A7E
100
AcDbEntity
  8
1-線
 62
     0
370
    -2
100
AcDbBlockReference
  2
_Open30
 10
176.7499999999998
 20
140.0
 30
0.0
 41
2.5
 42
2.5
 43
2.5
 50
180.0
  0
MTEXT
  5
45A9
330
2A7E
100
AcDbEntity
  8
1-線
 62
     0
100
AcDbMText
 10
187.9999999999999
 20
142.5
 30
0.0
 40
3.0
 41
0.0
 71
     5
 72
     1
  1
45
 73
     1
 44
1.0
  0
POINT
  5
45AA
330
2A7E
100
AcDbEntity
  8
Defpoints
 62
     0
100
AcDbPoint
 10
199.25
 20
179.25
 30
0.0
  0
POINT
  5
45AB
330
2A7E
100
AcDbEntity
  8
Defpoints
 62
     0
100
AcDbPoint
 10
176.7499999999998
 20
147.0743321117991
 30
0.0
  0
POINT
  5
45AC
330
2A7E
100
AcDbEntity
  8
Defpoints
 62
     0
100
AcDbPoint
 10
176.7499999999998
 20
140.0
 30
0.0
  0
ENDBLK
  5
2A89
330
2A7E
100
AcDbEntity
  8
0
100
AcDbBlockEnd
  0
BLOCK
  5
2A94
330
2A8A
100
AcDbEntity
  8
0
100
AcDbBlockBegin
  2
*D14
 70
     1
 10
0.0
 20
0.0
 30
0.0
  3
*D14
  1

  0
LINE
  5
459B
330
2A8A
100
AcDbEntity
  8
1-線
 62
     0
370
    -2
100
AcDbLine
 10
216.0000000000004
 20
168.6498527033331
 30
0.0
 11
216.0000000000004
 21
131.0
 31
0.0
  0
LINE
  5
459C
330
2A8A
100
AcDbEntity
  8
1-線
 62
     0
370
    -2
100
AcDbLine
 10
176.7499999999998
 20
139.0
 30
0.0
 11
176.7499999999998
 21
131.0
 31
0.0
  0
LINE
  5
459D
330
2A8A
100
AcDbEntity
  8
1-線
 62
     0
370
    -2
100
AcDbLine
 10
213.5000000000004
 20
132.0
 30
0.0
 11
179.2499999999998
 21
132.0
 31
0.0
  0
INSERT
  5
459E
330
2A8A
100
AcDbEntity
  8
1-線
 62
     0
370
    -2
100
AcDbBlockReference
  2
_Open30
 10
216.0000000000004
 20
132.0
 30
0.0
 41
2.5
 42
2.5
 43
2.5
  0
INSERT
  5
459F
330
2A8A
100
AcDbEntity
  8
1-線
 62
     0
370
    -2
100
AcDbBlockReference
  2
_Open30
 10
176.7499999999998
 20
132.0
 30
0.0
 41
2.5
 42
2.5
 43
2.5
 50
180.0
  0
MTEXT
  5
45A0
330
2A8A
100
AcDbEntity
  8
1-線
 62
     0
100
AcDbMText
 10
196.3750000000001
 20
134.5
 30
0.0
 40
3.0
 41
0.0
 71
     5
 72
     1
  1
78.5
 73
     1
 44
1.0
  0
POINT
  5
45A1
330
2A8A
100
AcDbEntity
  8
Defpoints
 62
     0
100
AcDbPoint
 10
216.0000000000004
 20
168.6498527033331
 30
0.0
  0
POINT
  5
45A2
330
2A8A
100
AcDbEntity
  8
Defpoints
 62
     0
100
AcDbPoint
 10
176.7499999999998
 20
139.0
 30
0.0
  0
POINT
  5
45A3
330
2A8A
100
AcDbEntity
  8
Defpoints
 62
     0
100
AcDbPoint
 10
176.7499999999998
 20
132.0
 30
0.0
  0
ENDBLK
  5
2A95
330
2A8A
100
AcDbEntity
  8
0
100
AcDbBlockEnd
  0
BLOCK
  5
467B
330
4671
100
AcDbEntity
  8
0
100
AcDbBlockBegin
  2
*D15
 70
     1
 10
0.0
 20
0.0
 30
0.0
  3
*D15
  1

  0
LINE
  5
46CF
330
4671
100
AcDbEntity
  8
1-線
 62
     0
370
    -2
100
AcDbLine
 10
178.0
 20
206.0
 30
0.0
 11
159.0
 21
206.0
 31
0.0
  0
LINE
  5
46D0
330
4671
100
AcDbEntity
  8
1-線
 62
     0
370
    -2
100
AcDbLine
 10
178.0
 20
186.0
 30
0.0
 11
159.0
 21
186.0
 31
0.0
  0
LINE
  5
46D1
330
4671
100
AcDbEntity
  8
1-線
 62
     0
370
    -2
100
AcDbLine
 10
160.0
 20
203.5
 30
0.0
 11
160.0
 21
188.5
 31
0.0
  0
INSERT
  5
46D2
330
4671
100
AcDbEntity
  8
1-線
 62
     0
370
    -2
100
AcDbBlockReference
  2
_Open30
 10
160.0
 20
206.0
 30
0.0
 41
2.5
 42
2.5
 43
2.5
 50
90.0
  0
INSERT
  5
46D3
330
4671
100
AcDbEntity
  8
1-線
 62
     0
370
    -2
100
AcDbBlockReference
  2
_Open30
 10
160.0
 20
186.0
 30
0.0
 41
2.5
 42
2.5
 43
2.5
 50
270.0
  0
MTEXT
  5
46D4
330
4671
100
AcDbEntity
  8
1-線
 62
     0
100
AcDbMText
 10
157.5
 20
196.0
 30
0.0
 40
3.0
 41
0.0
 71
     5
 72
     1
  1
\A1;%%c40{\H0.7x;\SH7^ ;}
 11
0.0000000000000001
 21
1.0
 31
0.0
 73
     1
 44
1.0
  0
POINT
  5
46D5
330
4671
100
AcDbEntity
  8
Defpoints
 62
     0
100
AcDbPoint
 10
178.0
 20
206.0
 30
0.0
  0
POINT
  5
46D6
330
4671
100
AcDbEntity
  8
Defpoints
 62
     0
100
AcDbPoint
 10
178.0
 20
186.0
 30
0.0
  0
POINT
  5
46D7
330
4671
100
AcDbEntity
  8
Defpoints
 62
     0
100
AcDbPoint
 10
160.0
 20
186.0
 30
0.0
  0
ENDBLK
  5
467C
330
4671
100
AcDbEntity
  8
0
100
AcDbBlockEnd
  0
BLOCK
  5
4689
330
467D
100
AcDbEntity
  8
0
100
AcDbBlockBegin
  2
*D16
 70
     1
 10
0.0
 20
0.0
 30
0.0
  3
*D16
  1

  0
LINE
  5
4714
330
467D
100
AcDbEntity
  8
1-線
 62
     0
370
    -2
100
AcDbLine
 10
191.6249999999999
 20
179.25
 30
0.0
 11
191.6249999999999
 21
155.0
 31
0.0
  0
LINE
  5
4715
330
467D
100
AcDbEntity
  8
1-線
 62
     0
370
    -2
100
AcDbLine
 10
184.3749999999999
 20
179.2499999999999
 30
0.0
 11
184.3749999999999
 21
155.0
 31
0.0
  0
LINE
  5
4716
330
467D
100
AcDbEntity
  8
1-線
 62
     0
370
    -2
100
AcDbLine
 10
189.1249999999999
 20
156.0
 30
0.0
 11
186.8749999999999
 21
156.0
 31
0.0
  0
LINE
  5
4717
330
467D
100
AcDbEntity
  8
1-線
 62
     0
370
    -2
100
AcDbLine
 10
184.3749999999999
 20
156.0
 30
0.0
 11
162.7349999999999
 21
156.0
 31
0.0
  0
INSERT
  5
4718
330
467D
100
AcDbEntity
  8
1-線
 62
     0
370
    -2
100
AcDbBlockReference
  2
_Open30
 10
191.6249999999999
 20
156.0
 30
0.0
 41
2.5
 42
2.5
 43
2.5
  0
INSERT
  5
4719
330
467D
100
AcDbEntity
  8
1-線
 62
     0
370
    -2
100
AcDbBlockReference
  2
_Open30
 10
184.3749999999999
 20
156.0
 30
0.0
 41
2.5
 42
2.5
 43
2.5
 50
180.0
  0
MTEXT
  5
471A
330
467D
100
AcDbEntity
  8
1-線
 62
     0
100
AcDbMText
 10
171.6249999999999
 20
159.45
 30
0.0
 40
3.0
 41
0.0
 71
     5
 72
     1
  1
\A1;%%c14.5{\H0.7x;\SH8^ ｍ6;}
 73
     1
 44
1.0
  0
POINT
  5
471B
330
467D
100
AcDbEntity
  8
Defpoints
 62
     0
100
AcDbPoint
 10
191.6249999999999
 20
179.25
 30
0.0
  0
POINT
  5
471C
330
467D
100
AcDbEntity
  8
Defpoints
 62
     0
100
AcDbPoint
 10
184.3749999999999
 20
179.2499999999999
 30
0.0
  0
POINT
  5
471D
330
467D
100
AcDbEntity
  8
Defpoints
 62
     0
100
AcDbPoint
 10
184.3749999999999
 20
156.0
 30
0.0
  0
ENDBLK
  5
468A
330
467D
100
AcDbEntity
  8
0
100
AcDbBlockEnd
  0
BLOCK
  5
4695
330
468B
100
AcDbEntity
  8
0
100
AcDbBlockBegin
  2
*D17
 70
     1
 10
0.0
 20
0.0
 30
0.0
  3
*D17
  1

  0
LINE
  5
46E1
330
468B
100
AcDbEntity
  8
1-線
 62
     0
370
    -2
100
AcDbLine
 10
254.0000000000001
 20
206.0
 30
0.0
 11
277.0
 21
206.0
 31
0.0
  0
LINE
  5
46E2
330
468B
100
AcDbEntity
  8
1-線
 62
     0
370
    -2
100
AcDbLine
 10
254.0000000000002
 20
186.0
 30
0.0
 11
277.0
 21
186.0
 31
0.0
  0
LINE
  5
46E3
330
468B
100
AcDbEntity
  8
1-線
 62
     0
370
    -2
100
AcDbLine
 10
276.0000000000001
 20
203.5
 30
0.0
 11
276.0000000000001
 21
188.5
 31
0.0
  0
INSERT
  5
46E4
330
468B
100
AcDbEntity
  8
1-線
 62
     0
370
    -2
100
AcDbBlockReference
  2
_Open30
 10
276.0000000000001
 20
206.0
 30
0.0
 41
2.5
 42
2.5
 43
2.5
 50
90.0
  0
INSERT
  5
46E5
330
468B
100
AcDbEntity
  8
1-線
 62
     0
370
    -2
100
AcDbBlockReference
  2
_Open30
 10
276.0000000000001
 20
186.0
 30
0.0
 41
2.5
 42
2.5
 43
2.5
 50
270.0
  0
MTEXT
  5
46E6
330
468B
100
AcDbEntity
  8
1-線
 62
     0
100
AcDbMText
 10
273.5
 20
196.0
 30
0.0
 40
3.0
 41
0.0
 71
     5
 72
     1
  1
\A1;%%c40{\H0.7x;\SH7^ ;}
 11
0.0000000000000001
 21
1.0
 31
0.0
 73
     1
 44
1.0
  0
POINT
  5
46E7
330
468B
100
AcDbEntity
  8
Defpoints
 62
     0
100
AcDbPoint
 10
254.0000000000001
 20
206.0
 30
0.0
  0
POINT
  5
46E8
330
468B
100
AcDbEntity
  8
Defpoints
 62
     0
100
AcDbPoint
 10
254.0000000000002
 20
186.0
 30
0.0
  0
POINT
  5
46E9
330
468B
100
AcDbEntity
  8
Defpoints
 62
     0
100
AcDbPoint
 10
276.0000000000001
 20
186.0
 30
0.0
  0
ENDBLK
  5
4696
330
468B
100
AcDbEntity
  8
0
100
AcDbBlockEnd
  0
BLOCK
  5
477A
330
4770
100
AcDbEntity
  8
0
100
AcDbBlockBegin
  2
*D18
 70
     1
 10
0.0
 20
0.0
 30
0.0
  3
*D18
  1

  0
LINE
  5
4771
330
4770
100
AcDbEntity
  8
1-線
 62
     0
370
    -2
100
AcDbLine
 10
139.9999999999999
 20
216.0
 30
0.0
 11
100.4048194805743
 21
216.0
 31
0.0
  0
LINE
  5
4772
330
4770
100
AcDbEntity
  8
1-線
 62
     0
370
    -2
100
AcDbLine
 10
139.9999999999998
 20
176.0
 30
0.0
 11
100.4048194805743
 21
176.0
 31
0.0
  0
LINE
  5
4773
330
4770
100
AcDbEntity
  8
1-線
 62
     0
370
    -2
100
AcDbLine
 10
101.4048194805743
 20
213.4999999999999
 30
0.0
 11
101.4048194805743
 21
178.5
 31
0.0
  0
INSERT
  5
4774
330
4770
100
AcDbEntity
  8
1-線
 62
     0
370
    -2
100
AcDbBlockReference
  2
_Open30
 10
101.4048194805743
 20
216.0
 30
0.0
 41
2.5
 42
2.5
 43
2.5
 50
90.0
  0
INSERT
  5
4775
330
4770
100
AcDbEntity
  8
1-線
 62
     0
370
    -2
100
AcDbBlockReference
  2
_Open30
 10
101.4048194805743
 20
176.0
 30
0.0
 41
2.5
 42
2.5
 43
2.5
 50
270.0
  0
MTEXT
  5
4776
330
4770
100
AcDbEntity
  8
1-線
 62
     0
100
AcDbMText
 10
98.90481948057434
 20
196.0
 30
0.0
 40
3.0
 41
0.0
 71
     5
 72
     1
  1
40
 11
0.0000000000000001
 21
1.0
 31
0.0
 73
     1
 44
1.0
  0
POINT
  5
4777
330
4770
100
AcDbEntity
  8
Defpoints
 62
     0
100
AcDbPoint
 10
139.9999999999999
 20
216.0
 30
0.0
  0
POINT
  5
4778
330
4770
100
AcDbEntity
  8
Defpoints
 62
     0
100
AcDbPoint
 10
139.9999999999998
 20
176.0
 30
0.0
  0
POINT
  5
4779
330
4770
100
AcDbEntity
  8
Defpoints
 62
     0
100
AcDbPoint
 10
101.4048194805743
 20
176.0
 30
0.0
  0
ENDBLK
  5
477B
330
4770
100
AcDbEntity
  8
0
100
AcDbBlockEnd
  0
BLOCK
  5
4787
330
477D
100
AcDbEntity
  8
0
100
AcDbBlockBegin
  2
*D19
 70
     1
 10
0.0
 20
0.0
 30
0.0
  3
*D19
  1

  0
LINE
  5
477E
330
477D
100
AcDbEntity
  8
1-線
 62
     0
370
    -2
100
AcDbLine
 10
63.99999999999945
 20
240.0000000000001
 30
0.0
 11
63.99999999999945
 21
283.2978693191524
 31
0.0
  0
LINE
  5
477F
330
477D
100
AcDbEntity
  8
1-線
 62
     0
370
    -2
100
AcDbLine
 10
216.0000000000004
 20
250.9455927019283
 30
0.0
 11
216.0000000000004
 21
283.2978693191524
 31
0.0
  0
LINE
  5
4780
330
477D
100
AcDbEntity
  8
1-線
 62
     0
370
    -2
100
AcDbLine
 10
66.49999999999946
 20
282.2978693191524
 30
0.0
 11
213.5000000000004
 21
282.2978693191524
 31
0.0
  0
INSERT
  5
4781
330
477D
100
AcDbEntity
  8
1-線
 62
     0
370
    -2
100
AcDbBlockReference
  2
_Open30
 10
63.99999999999945
 20
282.2978693191524
 30
0.0
 41
2.5
 42
2.5
 43
2.5
 50
180.0
  0
INSERT
  5
4782
330
477D
100
AcDbEntity
  8
1-線
 62
     0
370
    -2
100
AcDbBlockReference
  2
_Open30
 10
216.0000000000004
 20
282.2978693191524
 30
0.0
 41
2.5
 42
2.5
 43
2.5
  0
MTEXT
  5
4783
330
477D
100
AcDbEntity
  8
1-線
 62
     0
100
AcDbMText
 10
139.9999999999999
 20
284.7978693191524
 30
0.0
 40
3.0
 41
0.0
 71
     5
 72
     1
  1
152
 73
     1
 44
1.0
  0
POINT
  5
4784
330
477D
100
AcDbEntity
  8
Defpoints
 62
     0
100
AcDbPoint
 10
63.99999999999945
 20
240.0000000000001
 30
0.0
  0
POINT
  5
4785
330
477D
100
AcDbEntity
  8
Defpoints
 62
     0
100
AcDbPoint
 10
216.0000000000004
 20
250.9455927019283
 30
0.0
  0
POINT
  5
4786
330
477D
100
AcDbEntity
  8
Defpoints
 62
     0
100
AcDbPoint
 10
216.0000000000004
 20
282.2978693191524
 30
0.0
  0
ENDBLK
  5
4788
330
477D
100
AcDbEntity
  8
0
100
AcDbBlockEnd
  0
BLOCK
  5
4794
330
478A
100
AcDbEntity
  8
0
100
AcDbBlockBegin
  2
*D20
 70
     1
 10
0.0
 20
0.0
 30
0.0
  3
*D20
  1

  0
LINE
  5
478B
330
478A
100
AcDbEntity
  8
1-線
 62
     0
370
    -2
100
AcDbLine
 10
368.0
 20
240.000000000005
 30
0.0
 11
368.0
 21
284.2978693191524
 31
0.0
  0
LINE
  5
478C
330
478A
100
AcDbEntity
  8
1-線
 62
     0
370
    -2
100
AcDbLine
 10
216.0000000000004
 20
250.9455927019283
 30
0.0
 11
216.0000000000004
 21
284.2978693191524
 31
0.0
  0
LINE
  5
478D
330
478A
100
AcDbEntity
  8
1-線
 62
     0
370
    -2
100
AcDbLine
 10
365.5
 20
283.2978693191524
 30
0.0
 11
218.5000000000004
 21
283.2978693191524
 31
0.0
  0
INSERT
  5
478E
330
478A
100
AcDbEntity
  8
1-線
 62
     0
370
    -2
100
AcDbBlockReference
  2
_Open30
 10
368.0
 20
283.2978693191524
 30
0.0
 41
2.5
 42
2.5
 43
2.5
  0
INSERT
  5
478F
330
478A
100
AcDbEntity
  8
1-線
 62
     0
370
    -2
100
AcDbBlockReference
  2
_Open30
 10
216.0000000000004
 20
283.2978693191524
 30
0.0
 41
2.5
 42
2.5
 43
2.5
 50
180.0
  0
MTEXT
  5
4790
330
478A
100
AcDbEntity
  8
1-線
 62
     0
100
AcDbMText
 10
292.0000000000002
 20
285.7978693191524
 30
0.0
 40
3.0
 41
0.0
 71
     5
 72
     1
  1
152
 73
     1
 44
1.0
  0
POINT
  5
4791
330
478A
100
AcDbEntity
  8
Defpoints
 62
     0
100
AcDbPoint
 10
368.0
 20
240.000000000005
 30
0.0
  0
POINT
  5
4792
330
478A
100
AcDbEntity
  8
Defpoints
 62
     0
100
AcDbPoint
 10
216.0000000000004
 20
250.9455927019283
 30
0.0
  0
POINT
  5
4793
330
478A
100
AcDbEntity
  8
Defpoints
 62
     0
100
AcDbPoint
 10
216.0000000000004
 20
283.2978693191524
 30
0.0
  0
ENDBLK
  5
4795
330
478A
100
AcDbEntity
  8
0
100
AcDbBlockEnd
  0
ENDSEC
  0
SECTION
  2
ENTITIES
  0
MTEXT
  5
E68
330
1F
100
AcDbEntity
  8
1-線
100
AcDbMText
 10
312.9841260005437
 20
164.7217985525683
 30
0.0
 40
3.0
 41
15.0
 71
     7
 72
     1
  1

 73
     1
 44
1.0
  0
CIRCLE
  5
4298
330
1F
100
AcDbEntity
  8
3-線
100
AcDbCircle
 10
368.0
 20
196.000000000005
 30
0.0
 40
33.5
  0
CIRCLE
  5
4299
330
1F
100
AcDbEntity
  8
3-線
100
AcDbCircle
 10
368.0
 20
196.000000000005
 30
0.0
 40
22.5
  0
CIRCLE
  5
429A
330
1F
100
AcDbEntity
  8
3-線
100
AcDbCircle
 10
368.0
 20
196.000000000005
 30
0.0
 40
20.0
  0
LINE
  5
429B
330
1F
100
AcDbEntity
  8
3-線
100
AcDbLine
 10
349.3603245736413
 20
188.7500000000051
 30
0.0
 11
379.0
 21
188.750000000005
 31
0.0
  0
LINE
  5
429C
330
1F
100
AcDbEntity
  8
3-線
100
AcDbLine
 10
349.3603245736414
 20
203.2500000000051
 30
0.0
 11
379.0
 21
203.250000000005
 31
0.0
  0
LINE
  5
429E
330
1F
100
AcDbEntity
  8
3-線
100
AcDbLine
 10
379.0
 20
188.750000000005
 30
0.0
 11
379.0
 21
203.250000000005
 31
0.0
  0
LINE
  5
429F
330
1F
100
AcDbEntity
  8
3-線
100
AcDbLine
 10
381.0
 20
190.750000000005
 30
0.0
 11
381.0
 21
201.250000000005
 31
0.0
  0
LINE
  5
42A1
330
1F
100
AcDbEntity
  8
3-線
100
AcDbLine
 10
381.0
 20
190.750000000005
 30
0.0
 11
387.2986398484453
 21
190.750000000005
 31
0.0
  0
LINE
  5
42A2
330
1F
100
AcDbEntity
  8
3-線
100
AcDbLine
 10
381.0
 20
190.750000000005
 30
0.0
 11
379.0
 21
188.750000000005
 31
0.0
  0
LINE
  5
42A3
330
1F
100
AcDbEntity
  8
3-線
100
AcDbLine
 10
381.0
 20
201.250000000005
 30
0.0
 11
387.2986398484453
 21
201.250000000005
 31
0.0
  0
LINE
  5
42A4
330
1F
100
AcDbEntity
  8
3-線
100
AcDbLine
 10
381.0
 20
201.250000000005
 30
0.0
 11
379.0
 21
203.250000000005
 31
0.0
  0
CIRCLE
  5
42B6
330
1F
100
AcDbEntity
  8
3-線
100
AcDbCircle
 10
64.0
 20
196.0000000000001
 30
0.0
 40
22.5
  0
CIRCLE
  5
42B7
330
1F
100
AcDbEntity
  8
3-線
100
AcDbCircle
 10
64.0
 20
196.0000000000001
 30
0.0
 40
33.5
  0
CIRCLE
  5
42B8
330
1F
100
AcDbEntity
  8
3-線
100
AcDbCircle
 10
64.0
 20
196.0000000000001
 30
0.0
 40
20.0
  0
LINE
  5
42B9
330
1F
100
AcDbEntity
  8
3-線
100
AcDbLine
 10
71.25000000000007
 20
214.6396754263588
 30
0.0
 11
71.24999999999997
 21
185.0000000000001
 31
0.0
  0
LINE
  5
42BA
330
1F
100
AcDbEntity
  8
3-線
100
AcDbLine
 10
56.75000000000007
 20
214.6396754263589
 30
0.0
 11
56.74999999999997
 21
185.0000000000001
 31
0.0
  0
LINE
  5
42BC
330
1F
100
AcDbEntity
  8
3-線
100
AcDbLine
 10
58.74999999999997
 20
183.0000000000002
 30
0.0
 11
69.24999999999997
 21
183.0000000000002
 31
0.0
  0
LINE
  5
42BD
330
1F
100
AcDbEntity
  8
3-線
100
AcDbLine
 10
56.74999999999997
 20
185.0000000000001
 30
0.0
 11
71.24999999999997
 21
185.0000000000001
 31
0.0
  0
LINE
  5
42BF
330
1F
100
AcDbEntity
  8
3-線
100
AcDbLine
 10
69.24999999999997
 20
183.0000000000002
 30
0.0
 11
69.24999999999997
 21
176.7013601515547
 31
0.0
  0
LINE
  5
42C0
330
1F
100
AcDbEntity
  8
3-線
100
AcDbLine
 10
69.24999999999997
 20
183.0000000000002
 30
0.0
 11
71.24999999999997
 21
185.0000000000001
 31
0.0
  0
LINE
  5
42C1
330
1F
100
AcDbEntity
  8
3-線
100
AcDbLine
 10
58.74999999999997
 20
183.0000000000002
 30
0.0
 11
58.74999999999997
 21
176.7013601515547
 31
0.0
  0
LINE
  5
42C2
330
1F
100
AcDbEntity
  8
3-線
100
AcDbLine
 10
58.74999999999997
 20
183.0000000000002
 30
0.0
 11
56.74999999999997
 21
185.0000000000001
 31
0.0
  0
LINE
  5
434C
330
1F
100
AcDbEntity
  8
1-破線
100
AcDbLine
 10
292.0000000000002
 20
216.0
 30
0.0
 11
248.449489742783
 21
216.0000000000001
 31
0.0
  0
LINE
  5
434D
330
1F
100
AcDbEntity
  8
1-破線
100
AcDbLine
 10
292.0000000000003
 20
176.0
 30
0.0
 11
248.4494897427833
 21
176.0
 31
0.0
  0
LINE
  5
434E
330
1F
100
AcDbEntity
  8
3-線
100
AcDbLine
 10
270.3500000000001
 20
229.4999999999999
 30
0.0
 11
200.2527767497328
 21
229.5000000000001
 31
0.0
  0
LINE
  5
434F
330
1F
100
AcDbEntity
  8
3-線
100
AcDbLine
 10
270.3500000000005
 20
162.5
 30
0.0
 11
200.2527767497331
 21
162.5
 31
0.0
  0
LINE
  5
4350
330
1F
100
AcDbEntity
  8
3-線
100
AcDbLine
 10
231.7472232502675
 20
207.5010851621156
 30
0.0
 11
231.7472232502675
 21
184.4989148378843
 31
0.0
  0
LINE
  5
4351
330
1F
100
AcDbEntity
  8
3-線
100
AcDbLine
 10
237.0
 20
214.0
 30
0.0
 11
237.0000000000001
 21
178.0000000000001
 31
0.0
  0
ARC
  5
4352
330
1F
100
AcDbEntity
  8
3-線
100
AcDbCircle
 10
216.0000000000001
 20
196.0
 30
0.0
 40
19.5
100
AcDbArc
 50
270.0
 51
90.0
  0
LINE
  5
4353
330
1F
100
AcDbEntity
  8
3-線
100
AcDbLine
 10
249.5
 20
213.98022334189
 30
0.0
 11
249.5000000000003
 21
178.0197766581099
 31
0.0
  0
LINE
  5
4354
330
1F
100
AcDbEntity
  8
3-線
100
AcDbLine
 10
167.2500000000001
 20
229.4999999999999
 30
0.0
 11
167.2499999999998
 21
185.0
 31
0.0
  0
LINE
  5
4355
330
1F
100
AcDbEntity
  8
3-線
100
AcDbLine
 10
152.7500000000001
 20
229.4999999999999
 30
0.0
 11
152.7499999999998
 21
185.0
 31
0.0
  0
LINE
  5
4358
330
1F
100
AcDbEntity
  8
3-線
100
AcDbLine
 10
182.5000000000001
 20
229.5
 30
0.0
 11
182.5
 21
162.5
 31
0.0
  0
LINE
  5
4359
330
1F
100
AcDbEntity
  8
3-線
100
AcDbLine
 10
137.5000000000001
 20
226.9999999999999
 30
0.0
 11
137.4999999999997
 21
164.9999999999999
 31
0.0
  0
ARC
  5
435B
330
1F
100
AcDbEntity
  8
3-線
100
AcDbCircle
 10
194.5
 20
164.5
 30
0.0
 40
12.0
100
AcDbArc
 50
87.55999089644483
 51
180.0
  0
LINE
  5
435D
330
1F
100
AcDbEntity
  8
3-線
100
AcDbLine
 10
154.7499999999998
 20
183.0
 30
0.0
 11
165.2499999999998
 21
183.0
 31
0.0
  0
LINE
  5
435E
330
1F
100
AcDbEntity
  8
3-線
100
AcDbLine
 10
152.7499999999998
 20
185.0
 30
0.0
 11
167.2499999999998
 21
185.0
 31
0.0
  0
LINE
  5
435F
330
1F
100
AcDbEntity
  8
3-線
100
AcDbLine
 10
154.7499999999997
 20
165.0
 30
0.0
 11
165.2499999999997
 21
165.0
 31
0.0
  0
LINE
  5
4360
330
1F
100
AcDbEntity
  8
3-線
100
AcDbLine
 10
139.9999999999997
 20
162.4999999999999
 30
0.0
 11
158.3499999999997
 21
162.4999999999999
 31
0.0
  0
ARC
  5
4361
330
1F
100
AcDbEntity
  8
3-線
100
AcDbCircle
 10
139.9999999999997
 20
164.9999999999999
 30
0.0
 40
2.5
100
AcDbArc
 50
180.0
 51
270.0
  0
LINE
  5
4363
330
1F
100
AcDbEntity
  8
3-線
100
AcDbLine
 10
139.9999999999998
 20
176.0
 30
0.0
 11
154.7499999999998
 21
176.0
 31
0.0
  0
LINE
  5
4364
330
1F
100
AcDbEntity
  8
3-線
100
AcDbLine
 10
137.4999999999997
 20
173.5
 30
0.0
 11
139.9999999999998
 21
176.0
 31
0.0
  0
LINE
  5
4365
330
1F
100
AcDbEntity
  8
3-線
100
AcDbLine
 10
154.7499999999998
 20
183.0
 30
0.0
 11
154.7499999999997
 21
165.0
 31
0.0
  0
LINE
  5
4366
330
1F
100
AcDbEntity
  8
3-線
100
AcDbLine
 10
154.7499999999998
 20
183.0
 30
0.0
 11
152.7499999999998
 21
185.0
 31
0.0
  0
CIRCLE
  5
4367
330
1F
100
AcDbEntity
  8
3-線
100
AcDbCircle
 10
159.9999999999997
 20
163.75
 30
0.0
 40
1.25
  0
LINE
  5
4368
330
1F
100
AcDbEntity
  8
3-線
100
AcDbLine
 10
158.3499999999997
 20
165.0
 30
0.0
 11
158.3499999999997
 21
162.4999999999999
 31
0.0
  0
LINE
  5
4369
330
1F
100
AcDbEntity
  8
3-線
100
AcDbLine
 10
161.6499999999997
 20
165.0
 30
0.0
 11
161.6499999999997
 21
162.5
 31
0.0
  0
LINE
  5
436A
330
1F
100
AcDbEntity
  8
3-線
100
AcDbLine
 10
161.6499999999997
 20
162.5
 30
0.0
 11
182.5
 21
162.5
 31
0.0
  0
LINE
  5
436C
330
1F
100
AcDbEntity
  8
3-線
100
AcDbLine
 10
165.2499999999998
 20
176.0
 30
0.0
 11
182.5
 21
176.0
 31
0.0
  0
LINE
  5
436D
330
1F
100
AcDbEntity
  8
3-線
100
AcDbLine
 10
165.2499999999998
 20
183.0
 30
0.0
 11
165.2499999999997
 21
165.0
 31
0.0
  0
LINE
  5
436E
330
1F
100
AcDbEntity
  8
3-線
100
AcDbLine
 10
165.2499999999998
 20
183.0
 30
0.0
 11
167.2499999999998
 21
185.0
 31
0.0
  0
LINE
  5
4371
330
1F
100
AcDbEntity
  8
3-線
100
AcDbLine
 10
216.0
 20
169.0
 30
0.0
 11
237.8759615953643
 21
169.0
 31
0.0
  0
LINE
  5
4372
330
1F
100
AcDbEntity
  8
3-線
100
AcDbLine
 10
196.5000000000004
 20
175.0
 30
0.0
 11
246.0000000000002
 21
175.0000000000001
 31
0.0
  0
ARC
  5
4373
330
1F
100
AcDbEntity
  8
3-線
100
AcDbCircle
 10
216.0
 20
146.6749969158658
 30
0.0
 40
22.32500308413419
100
AcDbArc
 50
90.0
 51
134.8588491305904
  0
LINE
  5
4374
330
1F
100
AcDbEntity
  8
3-線
100
AcDbLine
 10
196.5000000000005
 20
169.0
 30
0.0
 11
200.2527767497331
 21
162.5
 31
0.0
  0
LINE
  5
437E
330
1F
100
AcDbEntity
  8
3-線
100
AcDbLine
 10
194.5
 20
176.5
 30
0.0
 11
216.0000000000001
 21
176.5
 31
0.0
  0
LINE
  5
437F
330
1F
100
AcDbEntity
  8
3-線
100
AcDbLine
 10
196.5000000000004
 20
175.0
 30
0.0
 11
196.5000000000005
 21
169.0
 31
0.0
  0
LINE
  5
4380
330
1F
100
AcDbEntity
  8
3-線
100
AcDbLine
 10
195.0000000000004
 20
176.5
 30
0.0
 11
196.5000000000004
 21
175.0
 31
0.0
  0
ARC
  5
4386
330
1F
100
AcDbEntity
  8
3-線
100
AcDbCircle
 10
237.8759615953643
 20
181.0
 30
0.0
 40
12.0
100
AcDbArc
 50
270.0
 51
345.6199898002598
  0
LINE
  5
4387
330
1F
100
AcDbEntity
  8
3-線
100
AcDbLine
 10
237.0000000000001
 20
178.0000000000001
 30
0.0
 11
234.0000000000001
 21
175.0000000000001
 31
0.0
  0
ARC
  5
4388
330
1F
100
AcDbEntity
  8
3-線
100
AcDbCircle
 10
246.0000000000002
 20
178.5000000000001
 30
0.0
 40
3.5
100
AcDbArc
 50
270.0
 51
0.0
  0
ARC
  5
438A
330
1F
100
AcDbEntity
  8
3-線
100
AcDbCircle
 10
194.5000000000001
 20
227.5000000000001
 30
0.0
 40
12.0
100
AcDbArc
 50
180.0
 51
272.4400091035519
  0
LINE
  5
438D
330
1F
100
AcDbEntity
  8
3-線
100
AcDbLine
 10
152.7500000000001
 20
226.0
 30
0.0
 11
167.2500000000001
 21
226.0
 31
0.0
  0
LINE
  5
438E
330
1F
100
AcDbEntity
  8
3-線
100
AcDbLine
 10
153.7500000000001
 20
227.0
 30
0.0
 11
166.2500000000002
 21
227.0
 31
0.0
  0
LINE
  5
438F
330
1F
100
AcDbEntity
  8
3-線
100
AcDbLine
 10
140.0000000000001
 20
229.4999999999999
 30
0.0
 11
158.3500000000001
 21
229.4999999999999
 31
0.0
  0
LINE
  5
4390
330
1F
100
AcDbEntity
  8
3-線
100
AcDbLine
 10
139.9999999999999
 20
216.0
 30
0.0
 11
152.75
 21
216.0
 31
0.0
  0
LINE
  5
4391
330
1F
100
AcDbEntity
  8
3-線
100
AcDbLine
 10
137.5
 20
218.5
 30
0.0
 11
139.9999999999999
 21
216.0
 31
0.0
  0
ARC
  5
4392
330
1F
100
AcDbEntity
  8
3-線
100
AcDbCircle
 10
140.0000000000001
 20
226.9999999999999
 30
0.0
 40
2.5
100
AcDbArc
 50
90.0
 51
180.0
  0
LINE
  5
4394
330
1F
100
AcDbEntity
  8
3-線
100
AcDbLine
 10
153.7500000000001
 20
227.0
 30
0.0
 11
152.7500000000001
 21
226.0
 31
0.0
  0
LINE
  5
4395
330
1F
100
AcDbEntity
  8
3-線
100
AcDbLine
 10
167.2499999999999
 20
216.0
 30
0.0
 11
182.5
 21
216.0
 31
0.0
  0
LINE
  5
4396
330
1F
100
AcDbEntity
  8
3-線
100
AcDbLine
 10
161.65
 20
229.4999999999999
 30
0.0
 11
182.5000000000001
 21
229.5
 31
0.0
  0
CIRCLE
  5
4397
330
1F
100
AcDbEntity
  8
3-線
100
AcDbCircle
 10
160.0000000000001
 20
228.25
 30
0.0
 40
1.25
  0
LINE
  5
4398
330
1F
100
AcDbEntity
  8
3-線
100
AcDbLine
 10
161.65
 20
229.4999999999999
 30
0.0
 11
161.65
 21
227.0
 31
0.0
  0
LINE
  5
4399
330
1F
100
AcDbEntity
  8
3-線
100
AcDbLine
 10
158.3500000000001
 20
229.4999999999999
 30
0.0
 11
158.3500000000001
 21
227.0
 31
0.0
  0
LINE
  5
439A
330
1F
100
AcDbEntity
  8
3-線
100
AcDbLine
 10
166.2500000000002
 20
227.0
 30
0.0
 11
167.2500000000001
 21
226.0
 31
0.0
  0
CIRCLE
  5
439D
330
1F
100
AcDbEntity
  8
3-線
100
AcDbCircle
 10
216.0000000000001
 20
196.0
 30
0.0
 40
9.0
  0
LINE
  5
439E
330
1F
100
AcDbEntity
  8
3-線
100
AcDbLine
 10
216.0000000000003
 20
223.0
 30
0.0
 11
237.8759615953639
 21
223.0
 31
0.0
  0
LINE
  5
439F
330
1F
100
AcDbEntity
  8
3-線
100
AcDbLine
 10
196.5000000000002
 20
217.0
 30
0.0
 11
246.0
 21
216.9999999999999
 31
0.0
  0
LINE
  5
43A0
330
1F
100
AcDbEntity
  8
3-線
100
AcDbLine
 10
194.5000000000001
 20
215.5
 30
0.0
 11
216.0000000000001
 21
215.5
 31
0.0
  0
ARC
  5
43A1
330
1F
100
AcDbEntity
  8
3-線
100
AcDbCircle
 10
216.0000000000003
 20
245.3250030841355
 30
0.0
 40
22.32500308413559
100
AcDbArc
 50
225.1411508694107
 51
270.0
  0
LINE
  5
43A2
330
1F
100
AcDbEntity
  8
3-線
100
AcDbLine
 10
196.5000000000002
 20
223.0
 30
0.0
 11
196.5000000000002
 21
217.0
 31
0.0
  0
LINE
  5
43A3
330
1F
100
AcDbEntity
  8
3-線
100
AcDbLine
 10
196.5000000000002
 20
217.0
 30
0.0
 11
195.0000000000002
 21
215.5
 31
0.0
  0
LINE
  5
43A4
330
1F
100
AcDbEntity
  8
3-線
100
AcDbLine
 10
200.2527767497328
 20
229.5000000000001
 30
0.0
 11
196.5000000000002
 21
223.0
 31
0.0
  0
ARC
  5
43A5
330
1F
100
AcDbEntity
  8
3-線
100
AcDbCircle
 10
237.8759615953639
 20
211.0000000000001
 30
0.0
 40
12.0
100
AcDbArc
 50
14.38001019973859
 51
90.0
  0
LINE
  5
43A6
330
1F
100
AcDbEntity
  8
3-線
100
AcDbLine
 10
234.0000000000001
 20
216.9999999999999
 30
0.0
 11
237.0000000000001
 21
214.0
 31
0.0
  0
ARC
  5
43A7
330
1F
100
AcDbEntity
  8
3-線
100
AcDbCircle
 10
246.0
 20
213.4999999999999
 30
0.0
 40
3.5
100
AcDbArc
 50
0.0000000000016284
 51
90.0
  0
LINE
  5
43B6
330
1F
100
AcDbEntity
  8
1-破線
100
AcDbLine
 10
292.0000000000002
 20
216.0
 30
0.0
 11
292.0000000000003
 21
176.0
 31
0.0
  0
LINE
  5
43B7
330
1F
100
AcDbEntity
  8
3-線
100
AcDbLine
 10
273.2500000000001
 20
228.25
 30
0.0
 11
273.2500000000005
 21
163.75
 31
0.0
  0
LINE
  5
43B8
330
1F
100
AcDbEntity
  8
3-線
100
AcDbLine
 10
270.75
 20
228.25
 30
0.0
 11
270.7500000000004
 21
163.75
 31
0.0
  0
LINE
  5
43B9
330
1F
100
AcDbEntity
  8
3-線
100
AcDbLine
 10
294.5000000000001
 20
226.9999999999999
 30
0.0
 11
294.5000000000005
 21
164.9999999999999
 31
0.0
  0
LINE
  5
43BB
330
1F
100
AcDbEntity
  8
3-線
100
AcDbLine
 10
273.6500000000004
 20
188.9402549621106
 30
0.0
 11
273.6500000000004
 21
162.4999999999999
 31
0.0
  0
LINE
  5
43BC
330
1F
100
AcDbEntity
  8
3-線
100
AcDbLine
 10
270.3500000000005
 20
188.9402549621105
 30
0.0
 11
270.3500000000005
 21
162.5
 31
0.0
  0
LINE
  5
43BD
330
1F
100
AcDbEntity
  8
3-線
100
AcDbLine
 10
292.0000000000005
 20
162.4999999999999
 30
0.0
 11
273.6500000000004
 21
162.4999999999999
 31
0.0
  0
ARC
  5
43BE
330
1F
100
AcDbEntity
  8
3-線
100
AcDbCircle
 10
272.0000000000005
 20
163.75
 30
0.0
 40
1.25
100
AcDbArc
 50
180.0
 51
0.0
  0
LINE
  5
43BF
330
1F
100
AcDbEntity
  8
3-線
100
AcDbLine
 10
270.7500000000004
 20
165.0
 30
0.0
 11
270.3500000000005
 21
165.0
 31
0.0
  0
LINE
  5
43C0
330
1F
100
AcDbEntity
  8
3-線
100
AcDbLine
 10
273.6500000000004
 20
165.0
 30
0.0
 11
273.2500000000005
 21
165.0
 31
0.0
  0
ARC
  5
43C1
330
1F
100
AcDbEntity
  8
3-線
100
AcDbCircle
 10
292.0000000000005
 20
164.9999999999999
 30
0.0
 40
2.5
100
AcDbArc
 50
270.0
 51
0.0
  0
LINE
  5
43C2
330
1F
100
AcDbEntity
  8
1-破線
100
AcDbLine
 10
294.5000000000005
 20
173.5
 30
0.0
 11
292.0000000000003
 21
176.0
 31
0.0
  0
LINE
  5
43C3
330
1F
100
AcDbEntity
  8
3-線
100
AcDbLine
 10
292.0000000000001
 20
229.4999999999999
 30
0.0
 11
273.6500000000001
 21
229.4999999999999
 31
0.0
  0
LINE
  5
43C4
330
1F
100
AcDbEntity
  8
3-線
100
AcDbLine
 10
270.3500000000001
 20
229.4999999999999
 30
0.0
 11
270.3500000000001
 21
203.0597450378888
 31
0.0
  0
LINE
  5
43C5
330
1F
100
AcDbEntity
  8
3-線
100
AcDbLine
 10
273.6500000000001
 20
229.4999999999999
 30
0.0
 11
273.6500000000001
 21
203.0597450378889
 31
0.0
  0
ARC
  5
43C6
330
1F
100
AcDbEntity
  8
3-線
100
AcDbCircle
 10
272.0000000000002
 20
195.9999999999997
 30
0.0
 40
7.25
100
AcDbArc
 50
99.92819184228537
 51
260.0718081577146
  0
ARC
  5
43C7
330
1F
100
AcDbEntity
  8
3-線
100
AcDbCircle
 10
272.0000000000002
 20
195.9999999999997
 30
0.0
 40
7.25
100
AcDbArc
 50
279.9281918422888
 51
80.07180815771461
  0
ARC
  5
43C8
330
1F
100
AcDbEntity
  8
3-線
100
AcDbCircle
 10
272.0000000000001
 20
228.25
 30
0.0
 40
1.25
100
AcDbArc
 50
0.0
 51
180.0
  0
LINE
  5
43C9
330
1F
100
AcDbEntity
  8
3-線
100
AcDbLine
 10
270.75
 20
227.0
 30
0.0
 11
270.3500000000001
 21
227.0
 31
0.0
  0
LINE
  5
43CA
330
1F
100
AcDbEntity
  8
3-線
100
AcDbLine
 10
273.6500000000001
 20
227.0
 30
0.0
 11
273.2500000000001
 21
227.0
 31
0.0
  0
LINE
  5
43CB
330
1F
100
AcDbEntity
  8
1-破線
100
AcDbLine
 10
294.5000000000002
 20
218.5
 30
0.0
 11
292.0000000000002
 21
216.0
 31
0.0
  0
ARC
  5
43CC
330
1F
100
AcDbEntity
  8
3-線
100
AcDbCircle
 10
292.0000000000001
 20
226.9999999999999
 30
0.0
 40
2.5
100
AcDbArc
 50
0.0
 51
90.0
  0
LINE
  5
443A
330
1F
100
AcDbEntity
  8
3-線
100
AcDbLine
 10
139.9999999999999
 20
216.0
 30
0.0
 11
139.9999999999998
 21
176.0
 31
0.0
  0
LINE
  5
470B
330
1F
100
AcDbEntity
  8
3-線
100
AcDbLine
 10
152.7499999999998
 20
176.0
 30
0.0
 11
152.7499999999997
 21
162.4999999999999
 31
0.0
  0
LINE
  5
470C
330
1F
100
AcDbEntity
  8
3-線
100
AcDbLine
 10
167.2499999999998
 20
176.0
 30
0.0
 11
167.2499999999997
 21
162.5
 31
0.0
  0
ENDSEC
  0
SECTION
  2
OBJECTS
  0
DICTIONARY
  5
C
330
0
100
AcDbDictionary
281
     1
  3
ACAD_COLOR
350
4754
  3
ACAD_GROUP
350
D
  3
ACAD_LAYOUT
350
1A
  3
ACAD_MATERIAL
350
4753
  3
ACAD_MLINESTYLE
350
17
  3
ACAD_PLOTSETTINGS
350
19
  3
ACAD_PLOTSTYLENAME
350
E
  3
AcadDim
350
4270
  3
AcDbVariableDictionary
350
985
  0
DICTIONARY
  5
474
330
1F
100
AcDbDictionary
280
     1
281
     1
  3
ACAD_LAYOUTSELFREF
360
4B6
  0
DICTIONARY
  5
476
330
1B
100
AcDbDictionary
280
     1
281
     1
  3
ACAD_LAYOUTSELFREF
360
4B5
  0
DICTIONARY
  5
478
330
23
100
AcDbDictionary
280
     1
281
     1
  3
ACAD_LAYOUTSELFREF
360
4B7
  0
DICTIONARY
  5
4754
102
{ACAD_REACTORS
330
C
102
}
330
C
100
AcDbDictionary
281
     1
  0
DICTIONARY
  5
D
102
{ACAD_REACTORS
330
C
102
}
330
C
100
AcDbDictionary
281
     1
  0
DICTIONARY
  5
1A
102
{ACAD_REACTORS
330
C
102
}
330
C
100
AcDbDictionary
281
     1
  3
Model
350
22
  3
ﾚｲｱｳﾄ1
350
1E
  3
ﾚｲｱｳﾄ2
350
26
  0
DICTIONARY
  5
4753
102
{ACAD_REACTORS
330
C
102
}
330
C
100
AcDbDictionary
281
     1
  0
DICTIONARY
  5
17
102
{ACAD_REACTORS
330
C
102
}
330
C
100
AcDbDictionary
281
     1
  3
Standard
350
18
  0
DICTIONARY
  5
19
102
{ACAD_REACTORS
330
C
102
}
330
C
100
AcDbDictionary
281
     1
  3
Kyouwa-A3
350
4704
  0
ACDBDICTIONARYWDFLT
  5
E
102
{ACAD_REACTORS
330
C
102
}
330
C
100
AcDbDictionary
281
     1
  3
Normal
350
F
100
AcDbDictionaryWithDefault
340
F
1001
ACAD
1000
TREAT_AS_HARD
1070
     0
  0
XRECORD
  5
4270
102
{ACAD_REACTORS
330
C
102
}
330
C
100
AcDbXrecord
280
     1
 90
   990106
  3

 60
     4
 61
     0
 62
     4
 63
     4
 64
     1
 65
     0
 66
     0
 67
     2
 68
     1
 69
     0
 70
     0
 71
     0
 72
     0
 40
15.0
170
     1
  0
DICTIONARY
  5
985
102
{ACAD_REACTORS
330
C
102
}
330
C
100
AcDbDictionary
281
     1
  3
SORTENTS
350
986
  0
XRECORD
  5
4B6
102
{ACAD_REACTORS
330
474
102
}
330
474
100
AcDbXrecord
280
     1
340
1F
  0
XRECORD
  5
4B5
102
{ACAD_REACTORS
330
476
102
}
330
476
100
AcDbXrecord
280
     1
340
1B
  0
XRECORD
  5
4B7
102
{ACAD_REACTORS
330
478
102
}
330
478
100
AcDbXrecord
280
     1
340
23
  0
LAYOUT
  5
22
102
{ACAD_REACTORS
330
1A
102
}
330
1A
100
AcDbPlotSettings
  1
Kyouwa-A3
  2
HP DesignJet 430.pc3
  4
User269
  6
OLE1
 40
4.995333194732666
 41
16.93333625793457
 42
4.995330810546875
 43
16.93331909179687
 44
296.9259948730469
 45
419.8619995117186
 46
-5.0
 47
-25.0
 48
0.0
 49
0.0
140
0.0
141
0.0
142
1.0
143
1.0
 70
 11952
 72
     1
 73
     1
 74
     2
  7
monochrome.ctb
 75
    16
147
1.0
 76
     0
 77
     2
 78
   300
148
0.0
149
0.0
100
AcDbLayout
  1
Model
 70
     1
 71
     0
 10
0.0
 20
0.0
 11
12.0
 21
9.0
 12
0.0
 22
0.0
 32
0.0
 14
0.0
 24
0.0
 34
0.0
 15
0.0
 25
0.0
 35
0.0
146
0.0
 13
0.0
 23
0.0
 33
0.0
 16
1.0
 26
0.0
 36
0.0
 17
0.0
 27
1.0
 37
0.0
 76
     0
330
1F
  0
LAYOUT
  5
1E
102
{ACAD_REACTORS
330
1A
102
}
330
1A
100
AcDbPlotSettings
  1

  2
C:\PROGRAM FILES\AUTOCAD LT 2000I\plotters\DWF Classic.pc3
  4

  6

 40
0.0
 41
0.0
 42
0.0
 43
0.0
 44
0.0
 45
0.0
 46
0.0
 47
0.0
 48
0.0
 49
0.0
140
0.0
141
0.0
142
1.0
143
1.0
 70
   688
 72
     0
 73
     0
 74
     5
  7
monochrome.ctb
 75
    16
147
1.0
 76
     0
 77
     2
 78
   300
148
0.0
149
0.0
100
AcDbLayout
  1
ﾚｲｱｳﾄ1
 70
     1
 71
     1
 10
0.0
 20
0.0
 11
420.0
 21
297.0
 12
0.0
 22
0.0
 32
0.0
 14
1.000000000000000E+20
 24
1.000000000000000E+20
 34
1.000000000000000E+20
 15
-1.000000000000000E+20
 25
-1.000000000000000E+20
 35
-1.000000000000000E+20
146
0.0
 13
0.0
 23
0.0
 33
0.0
 16
1.0
 26
0.0
 36
0.0
 17
0.0
 27
1.0
 37
0.0
 76
     0
330
1B
  0
LAYOUT
  5
26
102
{ACAD_REACTORS
330
1A
102
}
330
1A
100
AcDbPlotSettings
  1

  2
C:\PROGRAM FILES\AUTOCAD LT 2000I\plotters\DWF Classic.pc3
  4

  6

 40
0.0
 41
0.0
 42
0.0
 43
0.0
 44
0.0
 45
0.0
 46
0.0
 47
0.0
 48
0.0
 49
0.0
140
0.0
141
0.0
142
1.0
143
1.0
 70
   688
 72
     0
 73
     0
 74
     5
  7
monochrome.ctb
 75
    16
147
1.0
 76
     0
 77
     2
 78
   300
148
0.0
149
0.0
100
AcDbLayout
  1
ﾚｲｱｳﾄ2
 70
     1
 71
     2
 10
0.0
 20
0.0
 11
12.0
 21
9.0
 12
0.0
 22
0.0
 32
0.0
 14
0.0
 24
0.0
 34
0.0
 15
0.0
 25
0.0
 35
0.0
146
0.0
 13
0.0
 23
0.0
 33
0.0
 16
1.0
 26
0.0
 36
0.0
 17
0.0
 27
1.0
 37
0.0
 76
     0
330
23
  0
MLINESTYLE
  5
18
102
{ACAD_REACTORS
330
17
102
}
330
17
100
AcDbMlineStyle
  2
STANDARD
 70
     0
  3

 62
   256
 51
90.0
 52
90.0
 71
     2
 49
0.5
 62
   256
  6
BYLAYER
 49
-0.5
 62
   256
  6
BYLAYER
  0
PLOTSETTINGS
  5
4704
102
{ACAD_REACTORS
330
19
102
}
330
19
100
AcDbPlotSettings
  1
Kyouwa-A3
  2
HP DesignJet 430.pc3
  4
User269
  6
OLE1
 40
4.995333194732666
 41
16.93333625793457
 42
4.995330810546875
 43
16.93331909179687
 44
296.9259948730469
 45
419.8619995117186
 46
-5.0
 47
-25.0
 48
0.0
 49
0.0
140
0.0
141
0.0
142
1.0
143
1.0
 70
  1712
 72
     1
 73
     1
 74
     2
  7
monochrome.ctb
 75
    16
147
1.0
 76
     0
 77
     2
 78
   300
148
0.0
149
0.0
  0
ACDBPLACEHOLDER
  5
F
102
{ACAD_REACTORS
330
E
102
}
330
E
  0
DICTIONARYVAR
  5
986
102
{ACAD_REACTORS
330
985
102
}
330
985
100
DictionaryVariables
280
     0
  1
96
  0
ENDSEC
  0
EOF
